Misc. Soundtrack - Indiana Jones Theme Text Guitar Tab

Learn the song with the online tablature player
E------------------------------------------------------|
B-----------------------6----------5-------------5-6---|
G-------5-------------4------4-5-7----------5--7-------|
D-----5-----------5-7------7--------------5------------|
A-7-8------5-7-8----------------------7-8--------------|
E------------------------------------------------------|

E--------------------------------|
B-----5-3---5-3---5-3---6-5-3----|
G-----------------------------5--|
D-5-5-----5-----5-----5----------|
A--------------------------------|
E--------------------------------|