Misc. Television - Angel Theme Chords

 
No chord
    
Standard guitar tuning:
E
A
D
G
B
E
No capo
1)
|--------------------------------------------------------------|
|--------------------------------------------------------------|
|--------------------------------------------------------------|
|------6-7/13-11-10~~-8-6~-5-3~-5~-6~~-------------------------|
|-6/8----------------------------------4~~~~~~~~~~~------------|
|--------------------------------------------------------------|
2)
|--------------------------------------------------------------|
|--------------------------------------------------------------|
|--------------------------------------------------------------|
|-----6--8--13-11--10~~-17~~-18~~------------------------------|
|-6/8-----------------------------16~~-16~~-16~~---------------|
|--------------------------------------------------------------|
3)
|--------------------------------------------------------------|
|--------------------------------------------------------------|
|--------------------------------------------------------------|
|--------------------------------------------------------------|
|--------------------------------------------------------------|
|-1--3--1--3--1--3/4--1--3--1--3--1--3/4/6--4---11p10p8--------|
4)
|--------------------------------------------------------------|
|--------------------------------------------------------------|
|---------------------------------------------12~-13~----------|
|-11-10-8-13-11-10~~-8-6-5/6-8-10~--13-11-10~---------11~~11~~-|
|--------------------------------------------------------------|
|--------------------------------------------------------------|
5)   ^
|--------------------------------------------------------------|
|--------------------------------------------------------------|
|----17-(bend out at ending)-----------------------------------|
|--------------------------------------------------------------|
|--------------------------------------------------------------|
|--------------------------------------------------------------|

All Content on this page is the property of the copyright owner of the original composition.