Misc. Unsigned Bands - 10 Things - Phish Jam Text Guitar Tab

Learn song with the online tabulature player
----------------------------------------------------------------------------
                             Phish Jam - 10 Things
----------------------------------------------------------------------------Tabbed 
Church
Email:mario_nation@yahoo.com

Tuning:EADGBe
b=bend

played sortta choppy
e|-6-5-3---------------------------------3-6---------3-6-6-5-6-5--65656-----|
B|-------6-3-6-3---------------------3-6---------3-6------------------------|
G|---------------5-3-5b---pause---5b---------3-5----------------------------|
D|--------------------------------------------------------------------------|
A|--------------------------------------------------------------------------|
E|--------------------------------------------------------------------------|

e|-5-3-5-3--53535----------------6-5-3---------------------------------3-6--|
B|----------------5-3-5-3--53535-------6-3-6-3---------------------3-6------|
G|---------------------------------------------5-3-5b---pause---5b----------|
D|--------------------------------------------------------------------------|
A|--------------------------------------------------------------------------|
E|--------------------------------------------------------------------------|