Misc. Unsigned Bands - 10 Things - Rockin Text Guitar Tab

Learn the song with the online tablature player
                             Rockin' - 10 Things

| /  slide up
| \  slide down
| h  hammer-on
| p  pull-off
| v  vibrato
| +  harmonic
| x  Mute note

INTRO
(clean)5x
e|-----------------|
B|-----------------|
G|-----------------|
D|-----------------|
A|-----------------|
E|-0-0-3-0-0-0-3---|

Verse
(distortion)2x
e|----------4-4-4---2-2-------------------------4-4-4---2-2-----------|
B|----------4-4-4---2-2-------------------------4-4-4---2-2-----------|
G|----------4-4-4---2-2------8v-----------------4-4-4---2-2------7v---|
D|----------4-4-4---2-2--8-9--------------------4-4-4---2-2--7-8------|
A|----------4-4-4---2-2-------------------------4-4-4---2-2-----------|
E|----------4-4-4---2-2-------------------------4-4-4---2-2-----------|
    Rockin                       with the cross
e|------------------------4-4-4---2-2------------|
B|------------------------4-4-4---2-2------------|
G|------------------------4-4-4---2-2-------9v---|
D|------------------------4-4-4---2-2--9-10------|
A|------------------------4-4-4---2-2------------|
E|------------------------4-4-4---2-2------------|
   Rockin with the cross

Interlude
(distortion)2x
e|-2-2-2--4-4-4--8-8-8--10-10-10--2-2-2--4-4-4--7-7-7--9-9-9---|
B|-2-2-2--4-4-4--8-8-8--10-10-10--2-2-2--4-4-4--7-7-7--9-9-9---|
G|-2-2-2--4-4-4--8-8-8--10-10-10--2-2-2--4-4-4--7-7-7--9-9-9---|
D|-2-2-2--4-4-4--8-8-8--10-10-10--2-2-2--4-4-4--7-7-7--9-9-9---|
A|-2-2-2--4-4-4--8-8-8--10-10-10--2-2-2--4-4-4--7-7-7--9-9-9---|
E|-2-2-2--4-4-4--8-8-8--10-10-10--2-2-2--4-4-4--7-7-7--9-9-9---|

song order:

intro
verse-interlude-verse-interlude-intro-intro(distortion)