Misc. Unsigned Bands - 10 Things - The Cold War Text Guitar Tab

Learn song with the online tabulature player
-------------------------------------------------------------------------------
                             The Cold War - 10 Things
-------------------------------------------------------------------------------
Tabbed by:Rob Church
Email:mario_nation@yahoo.com

Tuning:DADGBe


(3x)distortion
e|--------------------------------------------------------------------------|
B|--------------------------------------------------------------------------|
G|--------------------------------------------------------------------------|
D|-7-7-7------------------3-3-3------------------5-5-5----------------------|
A|-5-5-5-5-0-5-0-5-0-5-0--1-1-1-1-0-1-0-1-0-1-0--3-3-3-3-0-3-0-3-0-3-0------|
D|--------------------------------------------------------------------------|

(1x)distortion
e|--------------------------------------------------------------------------|
B|--------------------------------------------------------------------------|
G|--------------------------------------------------------------------------|
D|-7-7-7------5-5-5------3-3-3------------------5-5-5-----------------------|
A|-5-5-5-0-5--3-3-3-0-3--1-1-1-1-0-1-0-1-0-1-0--3-3-3-3-0-3-0-3-0-3-0-------|
D|--------------------------------------------------------------------------|