Misc. Unsigned Bands - 14th Union - Party Text Guitar Tab

Learn the song with the online tablature player
                             PARTY - 14th Union

Order:
VERSE
CHORUS
VERSE
CHORUS
BASS SOLO
GTR SOLO
CHORUS
VERSE
CHORUS
CHORUS
OUTRO

VERSE
e|---------------------------------------------------------------------------|
B|---------------------------------------------------------------------------|
G|---------------------------------------------------------------------------|
D|-7------5-7-5-7-5-7--7------5-7-5~--7------5-7-5-7-5-7--7------5-7-5-------|
A|-7--5-7--------------7--5-7---------7--5-7--------------7--5-7-------7-5---|
E|-5-------------------5--------------5-------------------5------------------|          x2

CHORUS
RYTHYM
e|---------------------------------------------------------------------------|
B|---------------------------------------------------------------------------|
G|---------------------------------------------------------------------------|
D|-7--7--7-7-7--3--3--3-3-3-3-3-3--5--5-5-5-5-5-5----------------------------|
A|-7--7--7-7-7--3--3--3-3-3-3-3-3--5--5-5-5-5-5-5----------------------------|
E|-5--5--5-5-5--1--1--1-1-1-1-1-1--3--3-3-3-3-3-3----------------------------|      x4

LEAD
e|-----------------------------------------------------8-10-8----------------|
B|------------------------------------------------8-10---------10-8----------|
G|------------------------------------------------------------------9-7------|
D|---------------------------------------------------------------------------|
A|---------------------------------------------------------------------------|
E|---------------------------------------------------------------------------|  x4

SOLO
e|---8-5--------------------------------------------7------5~----------------|
B|-------8-7-5--------------------------------------7------5~----------------|
G|-------------7-5----------------------------------7------5~----------------|
D|-----------------7-5--------------5-7-5-7-5-7------------------------------|
A|----------------------------5-6-7------------------------------------------|
E|------------------------5-8------------------------------------------------|

OUTRO
e|------------------------------------|
B|------------------------------------|
G|------------------------------------|
D|-7------5-7-5-7-5-7--7------5-7-5~--|
A|-7--5-7--------------7--5-7---------|
E|-5-------------------5--------------|          x2

| /  slide up
| \  slide down
| h  hammer-on
| p  pull-off
| ~  vibrato
| +  harmonic
| x  Mute note