Misc. Unsigned Bands - 14th Year - This Man Text Guitar Tab

Learn song with the online tabulature player
-------------------------------------------------------------------------------
                             This man - 14th Year
-------------------------------------------------------------------------------
Tabbed by:buzz1
Email:yev_13@hotmail.com

Tuning:Standard tuning
Intro
e|---------------------------------------------------------------------------------|
B|------0---------0-----------------0-----------0----------------------------------|
G|-------------------------------0------------2------------------------------------|
D|----2--------2-------------0---------------0-------------------------------------|
A|--2-------3------------2----------------0----------------------------------------|
E|--------------------3-----------------2------------------------------------------|