Misc. Unsigned Bands - 16 Paces - Doggie In The Window Text Guitar Tab

Learn the song with the online tablature player
Chorus/Riff 1
e---0---8---9---10---9---8-|
B---0---8---9---10---9---8-|
G--------------------------|
D--------------------------|
A--------------------------|
E--------------------------|

Repeat x5

Verse 1
e----------------------|
B----------------------|
G---0---8---9---10---9-|
D---0---8---9---10---9-|
A----------------------|
E----------------------|

e------------------|
B------------------|
G------------------|
D------------------|
A------------------|
E---0---8---9---10-|

e-------------------------|
B-------------------------|
G-------------------------|
D-------------------------|
A-------------------------|
E---8---9---10---11---b12-|

Repeat Chorus

Tab submitted by: 16 Paces