Misc. Unsigned Bands - 2020 Vision - Ham And Eggs Text Guitar Tab

Learn the song with the online tablature player
Bam And Eggs
E|---------0-0----------------------------|
B|---------0-0-0--0----0------------------|
G|-------0-0-0-0--0----0------------------|
D|-0-0-0-0-0-0-0--0----0------------------|
A|-0-0-0-0-0-0-0--0----0------------------|
E|-0-0-0-0-0-0-0--0----0------------------|
(some like theirs..)
E|----------0-----------------------------|
B|--------0-------------------------------|
G|----------------------------------------|
D|----------------------------------------|
A|----------------------------------------|
E|----------------------------------------|