Misc. Unsigned Bands - 24 Hours Left - The End Of The World Text Guitar Tab

Learn song with the online tabulature player
The end of the world
by 24 hours left 2008

Drop C tuning

Intro 1
clean
|-----------------||-----------------||-----------------||-----------------|
|-----------------||-----------------||-----------------||-----------------|
|---------0-------||---------0-------||---------0-------||---------0-------|
|-----4-----4---4-||-----4-----4---4-||-----4-----4---4-||-----4-----4---4-|
|---2---4-----2---||---2---4-----2---||---2---4-----2---||---2---4-----2---|
|-2---------------||-2---------------||-2---------------||-2---------------|





|-----------------||-----------------||-----------------||-----------------|
|-----------------||-----------------||-----------------||-----------------|
|---------0-------||---------0-------||---------0-------||---------0-------|
|-----4-----4---4-||-----4-----4---4-||-----4-----4---4-||-----4-----4---4-|
|---2---4-----2---||---2---4-----2---||---2---4-----2---||---2---4-----2---|
|-0---------------||-0---------------||-0---------------||-0---------------|



intro 1 solo (emprovised aroun these notes)
while the intro 1 riff is being played
distorted
|-----------------------7-8-|
|----------------7-8-10-----|
|------------7-9------------|
|--------7-9----------------|
|-7-9-10--------------------|



Intro 2
distorted
|----------------------||----------------------|
|----------------------||----------------------|
|-------4--4--6-6-2----||-------4-4--2---------|
|-2--2--4--4--6-6-2----||-2--2--4-4--2---------|
|-2--2--2--2--4-4-0----||-2--2--2-2--0---------|
|-2--2-----------------||-2--2-----------------|




|----------------------||----------------------|
|----------------------||----------------------|
|-------4--4--6-6-2----||-------4-4--2---------|
|-2--2--4--4--6-6-2----||-2--2--4-4--2---------|
|-2--2--2--2--4-4-0----||-2--2--2-2--0---------|
|-2--2-----------------||-2--2-----------------|
|
|
|
|----------------------||----------------------|
|----------------------||----------------------|
|-------4--4--6-6-2----||-------4-4--2---------|
|-2--2-----------------||-2--2-----------------|
|----------------------||----------------------|
|----------------------||----------------------|


verse riff
|----------------||----------------||----------------||----------------|
|----------------||----------------||----------------||----------------|
|----------------||----------------||----------------||----------------|
|-2-2-2-55442244-||-2-2-2-55442244-||-0-0-0-55442244-||-0-0-0-55442244-|
|-2-2-2----------||-2-2-2----------||-0-0-0----------||-0-0-0----------|
|-2-2-2----------||-2-2-2----------||-0-0-0----------||-0-0-0----------|






|----------------||----------------||----------------||----------------|
|----------------||----------------||----------------||----------------|
|----------------||----------------||----------------||----------------|
|-2-2-2-55442244-||-2-2-2-55442244-||-0-0-0-55442244-||-0-0-0-55442244-|
|-2-2-2----------||-2-2-2----------||-0-0-0----------||-0-0-0----------|
|-2-2-2----------||-2-2-2----------||-0-0-0----------||-0-0-0----------|
|
|
|
|----------------||----------------||----------------||----------------|
|----------------||----------------||----------------||----------------|
|-------77664466-||-------77664466-||-------77664466-||-------77664466-|
|-2-2-2----------||-2-2-2----------||-0-0-0----------||-0-0-0----------|
|-2-2-2----------||-2-2-2----------||-0-0-0----------||-0-0-0----------|
|-2-2-2----------||-2-2-2----------||-0-0-0----------||-0-0-0----------|