Misc. Unsigned Bands - 31goings - A Message To Jade Text Guitar Tab

Learn the song with the online tablature player
Guitar 1:
|-----------------------------------------------------------|
|-----------------------------------------------------------|
|-----------------------------------------------12h14p12-10-|
|--0--------------0-0----------8-8-8--------10~~------------|
|--0--------------0-0----------8-8-8--------10~~------------|
|--0--------------0-0----------8-8-8--------10~~------------|
^(Triplet)

Repeat Chords 2 more times through but hold strum them until the last time then u play
as a triplet and then do the diddle at the end and then hold open until singing.

Guitar 2:
|---------------------------||
|---------------------------||
|--7----9----10---12---10-9-||
|--0--0-0--0-0--0-0--0-0--0-||
|---------------------------||(repeat)
|---------------------------||
. . . . <--- (dots mean palm mute only the note above them)

|---------------------------|
|---------------------------|
|--7----9----10---12---10-9-|
|--8--8-8--8-8--8-8--8-8--8-|
|---------------------------|
|---------------------------|
. . . .

|-------------------------------|
|-------------------------------|
|--9----10---12---9----9h10p9-7-|
|--10-1010-1010-1010-10---------|
|-------------------------------|
|-------------------------------|
. . . .

Then while guitar 1 is strumming, play the octaves of the notes on the G string.
Ex)
|-----|
|-----|
|--7--|
|--x--| ("x" means don’t play that string between them)
|--5--|
|-----|