Misc. Unsigned Bands - 39 Silver Bullets - You Were Just A Lie Text Guitar Tab

Learn song with the online tabulature player
intro:

|-----------------------------------------------------------|
|-----------------------------------------------------------|
|-----------------------------------------------------------|
|-----------------------------------------------------------|
|--2-3-0----2-3-0-----2-3-0----2-3-0-----2-3-0----2-3-0-----|
|-0-3------0-3---3---0-3------0-3---3---0-3------0-3---3----|

verse:play 4xs (play clean)

|-----------------------------------------------------------|
|-----------------------------------------------------------|
|-----------------------------------------------------------|
|-----------------------------------------------------------|
|-----------------------------------------------------------|
|-2-2-2-2-2-2-2-2---2-2-2-2-2-2-2-2---3-3-3-3-3-3-3-3-------|
|-0-0-0-0-0-0-0-0---3-3-3-3-3-3-3-3---3-3-3-3-3-3-3-3-------|



|-----------------------------------------------------------|
|-----------------------------------------------------------|
|-----------------------------------------------------------|
|-----------------------------------------------------------|
|-2-2-2-2-2-2-2-2---2-2-2-2-2-2-2-2-------------------------|
|-3-3-3-3-3-3-3-3---0-0-0-0-0-0-0-0-------------------------|


chorus:same as verse execpt distorted



intro
verse
chorus
verse
chorus
verse
chorus
intro
end it