Misc. Unsigned Bands - 3oh3 - Colorado Sunrise Text Guitar Tab

Learn song with the online tabulature player
-------------------------------------------------------------------------------
                             Colorado Sunrise - 3OH!3
-------------------------------------------------------------------------------
Tabbed by: Hawkman614
Email: LamDiablo614@Aol.Com

Tuning: Standard

Notes: Ok this is the intro acoustic part. Please bare with me, this is my first ever 
Ive only been playing for about 6 months. Any corrections please just email me.

         Guitar 1

e|-------------------------|
B|-------------------------|
G|--3-1--------------------|
D|1-------------------0----|
A|----------6-6-----0---6--|
E|--------4-------4--------|

e|-------------------------|
B|-------------------------|
G|--3-1--------------------|
D|1-------------------0----|
A|----------6-6-----0---6--|
E|--------4-------4--------|

         Guitar 1 & 2

e|-------------------------|
B|-------------------------|
G|--3-1--------------------|
D|1-------------------0----|
A|----------6-6-----0---6--|
E|--------4-------4--------|