Misc. Unsigned Bands - 420 Proof - Black Xmas Text Guitar Tab

Learn the song with the online tablature player
Intro Guitar 1
|----------------------------|
|----------------------------|
|----------------------------|
|----------------------------|
|----------------2-2-2-2-2-2-|
|----------------2-2-2-2-2-2-|
                 . . . . . .

Intro Guitar 2
|----------------------------|
|----------------------------|
|----------------------------|
|----------------------------|
|-3--3-5-7--5-0~~~~~~~~~~~~~-|
|-3--3-5-7--5-0~~~~~~~~~~~~~-|

Intro/Chorus
|----------------------------|----------------------------------
|----------------------------|----------------------------------
|----------------------------|----------------------------------
|----------------------------|----------------------------------
|-3--3-5-7--5-0--2-2-2-2-2-2-|-3--3-5-7--5-0--7*-7*-7*-7*-7*-7*-
|-3--3-5-7--5-0--2-2-2-2-2-2-|-3--3-5-7--5-0--7*-7*-7*-7*-7*-7*-

Intro/Chorus Guitar 2
|----------------------------|----------------------------------
|----------------------------|----------------------------------
|----------------------------|----------------------------------
|----------------------------|----------------------------------
|-3--3-5-7--5-0~~~~~~~~~~~~~-|-3--3-5-7--5-0--7*-7*-7*-7*-7*-7*-
|-3--3-5-7--5-0~~~~~~~~~~~~~-|-3--3-5-7--5-0--7*-7*-7*-7*-7*-7*-

Verse 1
Guitar 1)
|-------------------------------------------------|
|-------------------------------------------------|
|-11-11-11-11-11-11-11-11-11-11-11-11-11-11-11-11-|
|--x--x--x--x--x--x--x--x--x--x--x--x--x--x--x--x-|
|--9--9--9--9--9--9--9--9--9--9--9--9--9--9--9--9-|
|--0--0--0--0--0--0--0--0--0--0--0--0--0--0--0--0-|

Verse 1
Guitar 2)
|---------------------------------|
|---------------------------------|
|---------------------------------|
|-8-8-8-8-8-8-8-8-8-8-8-8-8-8-8-8-|
|-6-6-6-6-6-6-6-6-6-6-6-6-6-6-6-6-|
|---------------------------------|

Pre Chorus Both Guitars
|----------------------------|
|----------------------------|
|----------------------------|
|----------------x-x-x-x-x-x-|
|-3--3-5-7--5-0--x-x-x-x-x-x-|
|-3--3-5-7--5-0--x-x-x-x-x-x-|

Verse 2
|---------------------------------------------------------|
|---------4--4----------4--6----------4--4----------3--2--|
|---------4--4----------4--6----------4--4----------3--2--|
|---------------------------------------------------------|
|-1-0-1-0-------1-0-1-0-------1-0-1-0-------1-0-1-0-------|
|-1-0-1-0-------1-0-1-0-------1-0-1-0-------1-0-1-0-------|
  . . . .       . . . .       . . . .       . . . .

Interlude
|-------------------------|
|-------------------------|
|-------------------------|
|-0~~~~~~~~~~-2~~~~~~~~~~-|
|-0~~~~-5-6-7-2~~~~-4-3-2-|
|-0~~~~~~~~~~-2~~~~~~~~~~-|

End with
|--------------------------------------------------------------------|
|--------------------------------------------------------------------|
|--------------------------------------------------------------------|
|--------------------------------------------------------------------|
|-3--3-5-7--5-0--7*-7*-7*-7*-7*-7*---7*-7*-7*-7*-7*-7*-0~~~~~~~~~~~~-|
|-3--3-5-7--5-0--7*-7*-7*-7*-7*-7*---7*-7*-7*-7*-7*-7*-0~~~~~~~~~~~~-|