Misc. Unsigned Bands - 5 Degrees Kelvin - Flaming Kel Text Guitar Tab

Learn song with the online tabulature player
intro:
main riff:

----------------------------------------------------------------------|
----------------------------------------------------------------------|
--111---4---3--111-----111----4---3----111-----111---4----3----111----|
--222---5---4--222-----222----5---4----222-----222---5----4----222----|
--222---5---4--222-----222----5---4----222-----222---5----4----222----|
----------------------------------------------------------------------|

------0------|
--1---0------|
--2---0--1---|
--2---0--2---|
------0--2---|
------0------|


all the verses are
like the main riff but quiter.


quite an easy song to play but needs practise if your a begginer.