Misc. Unsigned Bands - 6 Feet To Death - Unexplainable Text Guitar Tab

Learn song with the online tabulature player
This is an awesome song, and an even better band. Listen to the song for the timing.

You can find the song here  www.myspace.com/6feettodeath

THIS IS A BAND YOU MUST CHECK OUT!!

From what I know, this IS the right way its played

x = palm mute
* = pinch harmonic
h = hammer on
p = pull off
|---- 0|
|----  | = repeat
|---- 0|


|---------------------------------------------------| ----- /
|---------------------------------------------------------- /  \
|---------------------------------------------------------- /   \
|---------------------------------------------------------- /    \
|-000-000---000---000-000---000-000---000---000-000-------- /     \
|-000-000---000---000-000---000-000---000---000-000-------- /      \
  xxx xxx   xxx   xxx xxx   xxx xxx   xxx   xxx xxx         \
                                                             \  Let the notes
|------------------------------------------------------------ /        /  ring a bit.
|---------------------------------------------------|      -- /
|---------------------------------------------------|     --- /
|---------------------------------------------------|    ---- /
|-111-111---111---111-111---111-111---111---111-111-|   ----- /
|-111-111---111---111-111---111-111---111---111-111-|  ------ /
  xxx xxx   xxx   xxx xxx   xxx xxx   xxx   xxx xxx    -


|---------------------------------------------------| ----- /
|---------------------------------------------------------- /  \
|---------------------------------------------------------- /   \
|---------------------------------------------------------- /    \
|-000-000---000---000-000---000-000---000---000-000-------- /     \
|-000-000---000---000-000---000-000---000---000-000-------- /      \
  xxx xxx   xxx   xxx xxx   xxx xxx   xxx   xxx xxx         \
                                                             \    dont let
|------------------------------------------------------------ /        /  notes ring.
|---------------------------------------------------|      -- /
|---------------------------------------------------|     --- /
|---------------------------------------------------|    ---- /
|-111-111---111---111-111---111-111---111---111-111-|   ----- /
|-111-111---111---111-111---111-111---111---111-111-|  ------ /
  xxx xxx   xxx   xxx xxx   xxx xxx   xxx   xxx xxx    -


|-----------------|-------------------------------------------------------|
|-----------------|-------------------------------------------------------|
|-----------------|-------------------------------------------------------|
|-----------------|-------------------------------------------------------|
|-0-0-0-0-0-0-5-3-|------6p3h5--------------6p3h5-------------------6p3h5-|
|-0-0-0-0-0-0-6-4-|0-0-0------0-0-0-0-0-0-0-------0-0-0-6p3h5-0-0-0-------|
  x x x x x x      x x x      x x x x x x x       x x x       x x x


------------------------------------  |
------------------------------------ 0|
---------------8-7-5----------------  |
---------------------8-7-5----------  |
---------------------------8-7-5-6*- 0|
-0-0-0-0-0-0-0----------------------  |
 x x x x x x x       x x x x x x

|-----------------------------------------------------------------------|
|-----------------------------------------------------------------------|
|-----------------------------------------------------------------------|
|-----------------------------------------------------------------------|
|-----------------------------------------------------------------------|
|-0-0-0-2h3p2h3p2-2-2-2-2-2-2-2h3p2h3p2-2-2-2-2h5p2h5p2-2-2-2-2h3p2h3p2-|
  x x x           x x x x x x           x x x           x x x


|---------------------------------------|
|---------------------------------------|
|---------------------------------------|
|---------------------------------------|
|---------------------------------------|
|-2-2-2-2-2-2-2h3p2h3p2-2-2-2-2h5p2h5p2-|
  x x x x x x           x x x


|-------------------------------------------------------|
|-------------------------------------------------------|
|-------------------------------------------------------|
|-------------------------------------------------------|
|------6p3h5--------------6p3h5-------------------6p3h5-|
|0-0-0------0-0-0-0-0-0-0-------0-0-0-6p3h5-0-0-0-------|
 x x x      x x x x x x x       x x x       x x x


|-----------------------------------------------|-------------------------|
|-----------------------------------------------|-------------------------|
|---------------8-7-5---------------------------|-------------------------|
|---------------------8-7-5---------------------|-------------------------|
|---------------------------8-7-5-6*--0---------|0---000-000-000---001-3*-|
|-0-0-0-0-0-0-0-----------------------0---------|0---000-000-000---001----|
  x x x x x x x       x x x x x x     x          x   xxx xxx xxx   xxx


|--------------------------------------------------------------------------- /
|--------------------------------------------------------------------------- /
|--------------------------------------------------------------------------- /
|--------------------------------------------------------------------------- /
|-0---000-000-000---001-3*--0---000-000-000---001-3*--0-000-000-000---001-3- /
|-0---000-000-000---001-----0---000-000-000---001-----0-000-000-000---001--- /
  x   xxx xxx xxx   xxx     x   xxx xxx xxx   xxx     x xxx xxx xxx   xxx

|----------------------------------------------------------------------------- /
|----------------------------------------------------------------------------- /
|----------------------------------------------------------------------------- /
|----------------------------------------------------------------------------- /
|-0---0-0-0---001-3*--0---0-0-0---001-3*--0-0-0-0---001-3*--0---0-0-0---001-3- /
|-0---0-0-0---001-----0---0-0-0---001-----0-0-0-0---001-----0---0-0-0---001-3- /
  x   x x x   xxx     x   x x x   xxx     x x x x   xxx     0   0 0 0   000
\                                                                           /
  \                                                                       /
    \                                                                   /
                   Let these  notes ring a bit.


Thats all for now fellas...