Misc. Unsigned Bands - 7 Odds Against - Beast And The Harlot Text Guitar Tab

Learn song with the online tabulature player
this is A7X's but our band is gonna cover it so here is my version

Drop-D (DADGBe)


play as needed

/--------------------------------------------------------/
/--------------------------------------------------------/
/--------------------------------------------------------/
/--------------------------------------------------------/
/----0-0-0--15-0-0-0--17-0-0-0--18-0-0-0--17-0-0-0--15~--/
/--------------------------------------------------------/
     * * *     * * *     * * *     * * *     * * * 


then

/-----------------------------/
/-----------------------------/
/-----------------------------/
/-0-0-0-4-0-6-0-7-0-6-0-4~----/
/-0-0-0-4-0-6-0-7-0-6-0-4~----/
/-0-0-0-4-0-6-0-7-0-6-0-4~----/
  * * *   *   *   *   *