Misc. Unsigned Bands - A Child Called It - You Cant Shoot A Duck During Deer Season Text Guitar Tab

Learn the song with the online tablature player
guitar 2
                     S
D|-------------------------------| |----------------------------|
A|------------------4-9------4---| |----------------------------|
F|------------------7-12-----7---| |------------------807080110-| \
C|-------------------------------| |----------------------------|  >X2
G|-0-0-0----000-0---------0------| |-0-0-0---000-0--------------| /
C|-0-0-0----000-0---------0------| |-0-0-0---000-0--------------|
          S                          S
D|------------------------------------------------------|
A|-------4-9-------4-4-4------------4-9-----------------|
F|-------7-12------7-7-7------------7-12--------807080--|
C|------------------------------------------------------|
G|-0-0-0--------0------------0-0-0----------0-----------|
C|-0-0-0--------0------------0-0-0----------0-----------|  \
          S                          S                        \
D|---------------------------------------------------|       > X2
A|-------4-9-------4-4-4------------4-9-----4-5-6----|      /
F|-------7-12------7-7-7------------7-12----7-8-9----|     /
C|---------------------------------------------------|
G|-0-0-0--------0------------0-0-0-------------------|
C|-0-0-0--------0------------0-0-0-------------------|

C|-0-|
G|-0-|
C|-0-|
                                    ___
D|-------------------------------|     |
A|-------------------------------|     |
F|---------8-----7811------------|x3   |
C|-----057-----------------------|     |
G|-0-0--------0------------------|     } X4
C|-0-0--------0------------------|     |
                                       |
C|----------------------------|        |
G|-5--5-5----1--1-1-----------|        |
C|-5--5-5----1--1-1-----------|        |

D|----------------------------------|
A|-----121112151211----121112151211-|
F|-1211------------1211-------------|
C|----------------------------------|
G|----------------------------------|
C|----------------------------------|

D|------------------| |-------------------------------|
A|------------------| |-----------------121112151211--|
F|------------------| |-------------1211--------------| X2
C|------------------| |-------------------------------|
G|-000-000----------| |-000-000-----------------------|
C|-000-000----------| |-000-000-----------------------|

D|----------------------------|
A|----------------------------|
F|----------------------------|
C|-------------6t5t-----------| X2
G|-------8t7t5t---------------|
C|-9t7t6t---------------------|

D|-----------------------------------|
A|-----------------------------------|
F|-----------------------------------|
C|-----------------------------------|
G|-0~--000---000---6~--666---666-----|
C|-0~--000---000---6~--666---666-----|

D|----------------------------|
A|----------------------------|
F|----------------------------|
C|-------------6t5t-----------| X4
G|-------8t7t5t---------------|
C|-9t7t6t---------------------|

D|-----------------------------------|
A|-----------------------------------|
F|-----------------------------------|
C|-----------------------------------| X2
G|-0~--000---000---6~--666---666-----|
C|-0~--000---000---6~--666---666-----|

stop

D|-----------------------------------|
A|-----------------------------------|
F|-----------------------------------|
C|-----------------------------------| X4
G|-0~--000---000---6~--666---666-----|
C|-0~--000---000---6~--666---666-----|
end on

C|---------------------|
G|-0~--000---000---6~--|
C|-0~--000---000---6~--|

t =  tremelo
S = slide