Misc. Unsigned Bands - A Rocket To The Moon - I Think About You Everyday Text Guitar Tab

Learn song with the online tabulature player
----------------------------------------------------------------------------
                      -I think aboout you everyday-
----------------------------------------------------------------------------

Standard tuning*

Intro and Verse

e|--3-3---3-3-3-------3-3---3-3-3-----|
b|--3-3---3-3-3-------3-3---3-3-3-----|
g|--0-0---0-0-0-------0-0---0-0-0-----| <-(just repeat this)
d|--2-2---2-2-2--0----2-2---2-2-2--0--|
a|--3-3---3-3-3--2----3-3---3-3-3--2--|
e|---------------3-----------------3--|


the chorus, i believe uses the same chords with a little variation, but you must figure 
the strumming pattern.