Misc. Unsigned Bands - A Verse Unsung - Cali Text Guitar Tab

Learn the song with the online tablature player
                             Cali - A Verse Unsung

MORE A.V.U. TABS COMING SOON...

Guitar 1 - Main Riff
D|--------------------------------------------------------------------------------|
A|------10\9-9---9/10-10---10-----------------------------------------------------|
F|-------x\x-x---x/x--x-----x---7-7-----------------------------------------------|
C|-7-7---7\6-6---6/7--7-----7---7-7---77-----------77-------------77-----------77-|
G|-4-4-0-------0---------0------5-5---77-----------77-------------77-----------77-|
C|-4-4-0-------0---------0------------77-----------77-------------77-----------77-|

Guitar 2 - Main Riff
D|----------------------------------------------------------------------------------------|
A|----------------------------------------------------------------------------------------|
F|------------------------------7-7-------------------------------------------------------|
C|------------------------------7-7---77-9p-7-9p-7-77-11p-9-11p-9-77-9p-7-9p-7-77-11p-9-11|
G|------------------------------5-5---77-----------77-------------77-----------77---------|
C|------------------------------------77-----------77-------------77-----------77---------|

Guitar 1 - Main Riff
D|--------------------------------------------------------------|
A|--------------------------------------------------------------|
F|--------------------------------------------------------------|
C|-9-----------9-----------9-----------9-----------12-12-12---2-|
G|-9-----------9-----------9-----------9-----------12-12-12---2-|
C|-9-----------9-----------9-----------9-----------12-12-12---2-|

Guitar 2 - Main Riff
D|--------------------------------------------------------------|
A|--------------------------------------------------------------|
F|--------------------------------------------------------------|
C|-9-11-11-11--9-11-11-11--9-11-11-11--9-11-11-11--12-12-12---2-|
G|-9-----------9-----------9-----------9-----------12-12-12---2-|
C|-9-----------9-----------9-----------9-----------12-12-12---2-|

  Verse
D|--------2---2--------2------------2------2------------2------2-|
A|--------2---2--------2------------2------2------------2------2-|
F|--------2---2--------2------------2------2------------2------2-|
C|-44-4-4-------00-0-0------2-44-4-4---4-4------00-0-0-----0-0---|
G|-44-4-4-------00-0-0------2-44-4-4---4-4------00-0-0-----0-0---|
C|-44-4-4-------00-0-0------2-44-4-4---4-4------00-0-0-----0-0---|

D|----------------------------------------------------------------------------|
A|----------------------------------------------------------------------------|
F|----------------------------------------------------------------------------|
C|-4444-4444-4444-4444-0000-0000-0000-0000-4444-4444-4444-4444-0000-0000-0-2--|
G|-4444-4444-4444-4444-0000-0000-0000-0000-4444-4444-4444-4444-0000-0000-0-2--|
C|-4444-4444-4444-4444-0000-0000-0000-0000-4444-4444-4444-4444-0000-0000-0-2--|

Guitar 1 - Chorus - X2
D|--------------------------------------------------------------------------------|
A|------10\9-9---9/10-10---10-----------------------------------------------------|
F|-------x\x-x---x/x--x-----x---7-7-----------------------------------------------|
C|-7-7---7\6-6---6/7--7-----7---7-7---77-----------77-------------77-----------77-|
G|-4-4-0-------0---------0------5-5---77-----------77-------------77-----------77-|
C|-4-4-0-------0---------0------------77-----------77-------------77-----------77-|

Guitar 2 - Chorus
D|----------------------------------------------------------------------------------------|
A|----------------------------------------------------------------------------------------|
F|------------------------------7-7-------------------------------------------------------|
C|------------------------------7-7---77-9p-7-9p-7-77-11p-9-11p-9-77-9p-7-9p-7-77-11p-9-11|
G|------------------------------5-5---77-----------77-------------77-----------77---------|
C|------------------------------------77-----------77-------------77-----------77---------|

Guitar 1
D|--------------------------------------------------------------|
A|--------------------------------------------------------------|
F|--------------------------------------------------------------|
C|-9-----------9-----------9-----------9-----------12-12-12---2-|
G|-9-----------9-----------9-----------9-----------12-12-12---2-|
C|-9-----------9-----------9-----------9-----------12-12-12---2-|

Guitar 2
D|--------------------------------------------------------------|
A|--------------------------------------------------------------|
F|--------------------------------------------------------------|
C|-9-11-11-11--9-11-11-11--9-11-11-11--9-11-11-11--12-12-12---2-|
G|-9-----------9-----------9-----------9-----------12-12-12---2-|
C|-9-----------9-----------9-----------9-----------12-12-12---2-|

Verse 2
(First Part Clean) - X4
D|-------------------------------------|
A|-------------------------------------|
F|-------------------------------------|
C|-----7-----7-----6-----6-----6-----6-|
G|---4-----4-----2-----0-----0-----2---|
C|-4-----4-----2-----0-----0-----2-----|

  Destortion
D|----------------------------------------------------------------------------|
A|----------------------------------------------------------------------------|
F|----------------------------------------------------------------------------|
C|-4444-4444-4444-4444-0000-0000-0000-0000-4444-4444-4444-4444-0000-0000-0-2--|
G|-4444-4444-4444-4444-0000-0000-0000-0000-4444-4444-4444-4444-0000-0000-0-2--|
C|-4444-4444-4444-4444-0000-0000-0000-0000-4444-4444-4444-4444-0000-0000-0-2--|

Guitar 1 - Chorus - X2
D|--------------------------------------------------------------------------------|
A|------10\9-9---9/10-10---10-----------------------------------------------------|
F|-------x\x-x---x/x--x-----x---7-7-----------------------------------------------|
C|-7-7---7\6-6---6/7--7-----7---7-7---77-----------77-------------77-----------77-|
G|-4-4-0-------0---------0------5-5---77-----------77-------------77-----------77-|
C|-4-4-0-------0---------0------------77-----------77-------------77-----------77-|

Guitar 2 - Chorus
D|----------------------------------------------------------------------------------------|
A|----------------------------------------------------------------------------------------|
F|------------------------------7-7-------------------------------------------------------|
C|------------------------------7-7---77-9p-7-9p-7-77-11p-9-11p-9-77-9p-7-9p-7-77-11p-9-11|
G|------------------------------5-5---77-----------77-------------77-----------77---------|
C|------------------------------------77-----------77-------------77-----------77---------|

Guitar 1
D|--------------------------------------------------------------|
A|--------------------------------------------------------------|
F|--------------------------------------------------------------|
C|-9-----------9-----------9-----------9-----------12-12-12---2-|
G|-9-----------9-----------9-----------9-----------12-12-12---2-|
C|-9-----------9-----------9-----------9-----------12-12-12---2-|

Guitar 2
D|--------------------------------------------------------------|
A|--------------------------------------------------------------|
F|--------------------------------------------------------------|
C|-9-11-11-11--9-11-11-11--9-11-11-11--9-11-11-11--12-12-12---2-|
G|-9-----------9-----------9-----------9-----------12-12-12---2-|
C|-9-----------9-----------9-----------9-----------12-12-12---2-|

Break
X4
D|---------------------------------------------------------------------------|
A|---------------------------------------------------------------------------|
F|---------------------------------------------------------------------------|
C|-44444--x2-00000--x2-------------------------------------------------------|
G|-44444--x2-00000--x2-------------------------------------------------------|
C|-44444--x2-00000--x2-------------------------------------------------------|

  Ending
D|--------------|
A|--------------|
F|--------------|
C|-44444--x2-0--|
G|-44444--x2-0--|
C|-44444--x2-0--|

| /  slide up
| \  slide down
| h  hammer-on
| p  pull-off
| ~  vibrato
| +  harmonic
| x  Mute note