Misc. Unsigned Bands - Aad - 160 Blues Text Guitar Tab

Learn the song with the online tablature player
160 BLUES

             This song is very easy, and very catchy. Enjoy!
             PS- I made it myself, with the help of my brother.

                       <---- Intro ---->                        <--Bridge-->

e>-------------------------------------------------------------|------------|
B>-------------------------------------------------------------|------------|
G>-------------------------------------------------------------|------------|
D>---4-4-4-4-/-8-8-8-8-/-4-4-4-4-/-8-8-8-8-/-4-4-4-4-/-8-8-8-8-|4-4-4-4-----|
A>---4-4-4-4-/-8-8-8-8-/-4-4-4-4-/-8-8-8-8-/-4-4-4-4-/-8-8-8-8-|4-4-4-4-----|(x2)
E>---2-2-2-2-/-6-6-6-6-/-2-2-2-2-/-6-6-6-6-/-2-2-2-2-/-6-6-6-6-|2-2-2-2-----|

For the verse just play the intro four times...

Verse Lyrics

Doing chores, how more bored can I get?

He's not here, I've got a minute of bliss

Better use it wisely, if I don't it might be,

The only chance that I'll get

                          <------Chorus------>

e>--------------------------------------------------------------------------|
B>--------------------------------------------------------------------------|
G>--------------------------------------------------------------------------|
D>--9-9-9-9--6-6-6-6--4-4-4-4--9-9-9-9--4-4-4-4--8-8-8-8--4-4-4-4--8-8-8-8--|
A>--9-9-9-9--6-6-6-6--4-4-4-4--9-9-9-9--4-4-4-4--8-8-8-8--4-4-4-4--8-8-8-8--|
E>--7-7-7-7--4-4-4-4--2-2-2-2--7-7-7-7--2-2-2-2--6-6-6-6--2-2-2-2--6-6-6-6--|

e>--------------------------------------------------------------------------|
B>--------------------------------------------------------------------------|
G>--------------------------------------------------------------------------|
D>--4-4-4-4--8-8-8-8--4-4-4-4-4-4-4-4---------------------------------------|
A>--4-4-4-4--8-8-8-8--4-4-4-4-4-4-4-4---------------------------------------|
E>--2-2-2-2--6-6-6-6--2-2-2-2-2-2-2-2---------------------------------------|

Chorus Lyrics

And I've dreamt about changing this house

And I wish it'd come true!

For the second verse simply play the same rythym as the first verse
(the intro) four times.

Second Verse Lyrics:

I'm not invited

But I kinda like it this time

I'll stay away from them and think about the stuff on my mind

Better do it quickly

If I don't it might be

My only time to think

                     <----------Chorus----------->

e>--------------------------------------------------------------------------|
B>--------------------------------------------------------------------------|
G>--------------------------------------------------------------------------|
D>--9-9-9-9--6-6-6-6--4-4-4-4--9-9-9-9--4-4-4-4--8-8-8-8--4-4-4-4--8-8-8-8--|
A>--9-9-9-9--6-6-6-6--4-4-4-4--9-9-9-9--4-4-4-4--8-8-8-8--4-4-4-4--8-8-8-8--|
E>--7-7-7-7--4-4-4-4--2-2-2-2--7-7-7-7--2-2-2-2--6-6-6-6--2-2-2-2--6-6-6-6--|

e>--------------------------------------------------------------------------|
B>--------------------------------------------------------------------------|
G>--------------------------------------------------------------------------|
D>--9-9-9-9--6-6-6-6--4-4-4-4--9-9-9-9--4-4-4-4--8-8-8-8--4-4-4-4--8-8-8-8--|
A>--9-9-9-9--6-6-6-6--4-4-4-4--9-9-9-9--4-4-4-4--8-8-8-8--4-4-4-4--8-8-8-8--|
E>--7-7-7-7--4-4-4-4--2-2-2-2--7-7-7-7--2-2-2-2--6-6-6-6--2-2-2-2--6-6-6-6--|

e>--------------------------------------------------------------------------|
B>--------------------------------------------------------------------------|
G>--------------------------------------------------------------------------|
D>--4-4-4-4--8-8-8-8--4-4-4-4-4-4-4-4---------------------------------------|
A>--4-4-4-4--8-8-8-8--4-4-4-4-4-4-4-4---------------------------------------|
E>--2-2-2-2--6-6-6-6--2-2-2-2-2-2-2-2---------------------------------------|

Second Chorus Lyrics:

And I've dreamt about changing this house and I wish it'd come true!

And I've dreamt about changing this house but I don't know what to do!

                <----------Drum Solo------------->

e>--------------------------------------------------------------------------|
B>--------------------------------------------------------------------------|
G>---------------------D---------------------D---------------------D--------|
D>--9-9-9-9-9-9-9-9-9--R--6-6-6-6-6-6-6-6-6--R--4-4-4-4-4-4-4-4-4--R--------|
A>--9-9-9-9-9-9-9-9-9--U--6-6-6-6-6-6-6-6-6--U--4-4-4-4-4-4-4-4-4--U--------|
E>--7-7-7-7-7-7-7-7-7--M--4-4-4-4-4-4-4-4-4--M--2-2-2-2-2-2-2-2-2--M--------|

                          <------Outro------->

e>--------------------------------------------------------------------------|
B>--------------------------------------------------------------------------|
G>--------------------------------------------------------------------------|
D>--4-4-4-4--8-8-8-8--4-4-4-4--8-8-8-8--4-4-4-4--8-8-8-8--4-5-4-5-4---------|
A>--4-4-4-4--8-8-8-8--4-4-4-4--8-8-8-8--4-4-4-4--8-8-8-8--4-5-4-5-4---------|
E>--2-2-2-2--6-6-6-6--2-2-2-2--6-6-6-6--2-2-2-2--6-6-6-6--2-3-2-3-2---------|