Misc. Unsigned Bands - Aaron Robinson - The Elephant Text Guitar Tab

Learn song with the online tabulature player
The Elephant - Aaron Robinson

These are only the chords of the song. You have to fingerpick the chords, listen accordingly.
I learned this from watching Aaron's youtube video. 

http://www.youtube.com/watch?v=-LpaBqr-S_o

The Elephant-Aaron Robinson
Verse
e|-5-5-3-3-3-3-3-3-----------------------------------------------|
B|-3-3-1-1-1-0-1-1-----------------------------------------------|
G|-4-4-2-2-0-0-0-0-----------------------------------------------|
D|-5-4-2-2-2-0-2-2-----------------------------------------------|
A|---------0-2-0-0-----------------------------------------------|
E|---------------------------------------------------------------|

Chorus
e|-3-3-3-3-3-3-3-3-------------------------------------------------|
B|-3-3-0-0-3-3-3-0-------------------------------------------------|
G|-0-2-0-0-0-2-0-0-------------------------------------------------|
D|-0-0-2-0-0-0-0-2-------------------------------------------------|
A|-2---3-2-2-0-2-3-------------------------------------------------|
E|-0-----3-0-2-3---------------------------------------------------|

Post Chorus
e|-3-3-3-3-------------------------------------------------------|
B|-3-3-3-3-------------------------------------------------------|
G|-0-0-0-2-------------------------------------------------------|
D|-2-0-2-0-------------------------------------------------------|
A|-3-2-3---------------------------------------------------------|
E|---------------------------------------------------------------|

Verse x 4
Chorus x 2
Post Chorus x 1
Verse x 4
Chorus x 2
Post Chorus x 4 (or whenever, i didn't really count)