Misc. Unsigned Bands - Ability - Skin Repair Text Guitar Tab

Learn song with the online tabulature player
the song is pretty easy you should get used to it pretty quickley.

e-----------------------------------------------------------------------0-0-|
b-----------------------------------2---3-3-----2-----------2--------2--0-0-|
g-------------------------------------0-----------0----------0--------0-----|
d--------------------------------0----0-------0---0-------0--0-----0--0-----|
a---------------------------------------------------0-0--------0-0----------|
E---0------0------0------0-------------------------------------0-0----------|

e--2------2-2---0-------------------------------------------2-----2-2-------|
b----3----3-3-----3-----3-------3---0-------------------------3---3-3-------|
g------0--0-0-------2-2---2---2-------2------2--------2--0------0-0---------|
d---------0-0---------------0-----------2--2----2---2-------------0---------|
a-------------------------------------------------0-------------------------|
E---------------------------------------------------------------------------|