Misc. Unsigned Bands - Abnormality - Question Text Guitar Tab

Learn the song with the online tablature player
riff 1
gtr 1) part A - 2x, part B - 2x, part A-----------------|| 2x
part A----------------------------------------------------------||
----------------------------------------------------------------||
-------------------------------------------------------------.--||
----------------------------------------------------------------||
-13---------141312------171614----------16-17----16-17-16----.--||
----14-12---------141312------171614-14-------14----------17----||

part B--------------------------------------------------------||
--------------------------------------------------------------||
-------------------------------------------------------------.||
-12---------131211------161513----------15-16----15-16-15-----||
----13-11---------131211------161513-13-------13----------16-.||
--------------------------------------------------------------||

riff 1
gtr 2) - 6x
---------------------------------------||
--------------------------------------.||
---------------------------------------||
---------------------------------------||
-1-------210---542------4-5---4-5-4---.||
---2-0------210---542-2-----2-------5--||

riff 2
8x
----------------------------------||
---------------------------------.||
----------------------------------||
----------------------------------||
-5-4---------5-4-----------------.||
-----2-0-2-3-----2-0-2-3-2-0-2-3--||
     PM.....     ............... (muted lightly)

riff 3
4x
----------------------------------------------------------------||
---------------------------------------------------------------.||
----------------------------------------------------------------||
-4/5-4/5---------3/4-3/4-----------------------------4/5-3/4----||
-2/3-2/3-4-4-4-4-1/2-1/2-----2-1---------------------2/3-1/2-1-.||
---------2-2-2-2---------0-1-----2-1-0-2-1-0-1-2-1-0------------||
         pm.....         ...     ...................

riff 4a
5x                                     riff 4b - 8x
---------------------|--------------------------||------------------||
---------------------|-------------------------.||-----------------.||
---------------------|--------------------------||------------------||
---------------------|-----6--------------------||------------------||
-------6-5----2------|-------5-6-5---5-4---4-3-.||-6-5---5-4---4-3-.||
-0-5-4-----012-01201-|-4-------4-3-0-3-2-0-2-1--||-4-3-0-3-2-0-2-1--||
           pm.......           ...............     ...............

riff 4a
gtr 2 first time only)
---------------------|-------------------------|
---------------------|-------------------------|
---------------------|-------------------------|
--rest-------4-------|-----6-------------------|
---------2---2-2-3-4-|-------5-6-5---5-4---4-3-|
---------0-----0-1-2-|-4-------4-3-0-3-2-0-2-1-|
         pm.........           ...............

riff 5
8x
------------------------------------||
-----------------------------------.||
------------------------------------||
-444--------------------------------||
-222---5-4-2-4-3-2-3-4-2-4-5-2-5-4-.||
-------3-2-0-2-1-0-1-2-0-2-3-0-3-2--||
       pm.........................

riff 6
4x
---------------------------------|---------------------------------|
---------------------------------|---------------------------------|
---------------------------------|---------------------------------|
---------------------------------|---------------------------------|
-------2-1-------2-1-----4---2---|-------2-1-------6-4-4-5-3-3-4-2-|
-0-2-3-----0-2-3-----0-2-2---3---|-0-2-3-----0-2-3-4-5-4-3-4-3-2-3-|
                                                   pm.............

---------------------------------|------------------------------||
---------------------------------|-----------------------------.||
---------------------------------|------------------------------||
---------------------------------|------------------------------||
-------2-1-------2-1-----4---2---|-------2-1-------3*-2*-------.||
-0-2-3-----0-2-3-----0-2-2---3---|-0-2-3-----0-2-3-------2~ 3~ -||

Riff 6 Continued
-------------|
-------------|
-------------|
-------------|
-------5*-4*-|
-1~ 0--------|

riff 7
4x
--------------------|--------------------|--------------------|
--------------------|--------------------|--------------------|
--------------------|--------------------|--------------------|
--------------------|------445544--------|--------------------|
------445544--------|------------55------|------445544--------|
-0022-------55-3322-|-0022----------3322-|-0022-------55-3322-|
 pm..          ....   ....          ....   ....          ....

Riff 7 Continued
---------------------||
--------------------.||
------445544---------||
------------55-------||
--------------------.||
-0022----------3322--||
 ....          ....

riff 8
3x
-----------------|-----------------|-----------------|------------------||
-----------------|-----------------|-----------------|-----------------.||
-----------------|-----------------|-----------------|------------------||
-----------------|-----------------|-----------------|------------------||
-5---2---4-2-3-4-|-4---2---4-2-3-4-|-5---2---4-2-3-4-|-4---2-4-3-2-----.||
-3---0---2-0-1-2-|-2---0---2-0-1-2-|-3---0---2-0-1-2-|-2---0-2-1-0-1~ --||
     pm  .......       .   .......       .   .......       .......

riff 9
4x                     riff 10 - 2x
------------------||            -----5-------3-------5-------7----|
-----------------.||            ------5-------3-------5-------7---|
------------------||            -------5-------3-------5-------7--|
------------------||            --------7-------5-------7-------9-|
-5-2-4-5---2-4-3-.||            ----------------------------------|
-3-0-2-3---0-2-1--||            -0123----0123----0123----0123-----|
 pm.....   .....

riff 4a
4x

riff 4b
1x
riff 4b half-time 1x

riff 11
8x
------------------------------|
------------------------------|
------------------------------|
-4/5-------------3/4----------|
-----2---4-2-3-4-----2-4-3-1*-|
-2/3-0---2-0-1-2-1/2-0-2-1----|
     pm  .......     .....