Misc. Unsigned Bands - Above City Lights - Method For Breathing Text Guitar Tab

Learn song with the online tabulature player
Above City Lights - Method for Breathing

(drop D tuning)

e|---------------------------------------|
B|---------------------------------------|
G|---------------------------------------|
d|--------7-------7\5---------10---------|
A|---8/10-----3/-------8----8----8h10----|
D|-0-----------------------8-8--8--------|

e|---------------------------------------|
B|---------------------------------------|
G|---------------------------------------|
d|--------7-------7\5---------10---------|
A|---8/10-----3/-------8----8------------|
D|-0-----------------------8-8-----------|
                              (^let ring)