Misc. Unsigned Bands - Absence With Out Leave - Since October Text Guitar Tab

Learn the song with the online tablature player
Since October was named by our fellow drummer Mr. Aaron Dawson aged at only 13, me Mr.
Jacob Greenhalgh-lee am 12 and i wrote this song!!

Written I was 11

Members
Guitarist/Lead singer ----> Jacob G.Lee!!!
Rhythm Guitarist/Bassist -> Dominic Thomas
Drummer/Backing vocals ---> Aaron Dawson!!

Intro
Riff 1
E----------------------------------------------------------------------------|
B----------------------------------------------------------------------------|
G-------------------------------------------------------------------------7--|
D-------------------------------------------------------------------------7--|
A-0--0--0--0--3--3--3--3--5--3--5--3--5--7--5--3--0--0--0--0--3--3--3--3--5--|
E-------------------------------------------------------------------------0--|

Riff 2
E----------------------------------------------------------------------------|
B----------------------------------------------------------------------------|
G-2--2--2--2--3--5--5--5--7--5--7--5--7--9--7--5--2--2--2--2--5--5--5--5--7--|
D-2--2--2--2--5--5--5--5--7--5--7--5--7--9--7--5--2--2--2--2--5--5--5--5--7--|
A-0--0--0--0--3--3--3--3--5--3--5--3--5--7--5--3--0--0--0--0--3--3--3--3--5--|
E----------------------------------------------------------------------------|

I Just_____ love the way dance and how you move!! Riff 1
I Just_____ Love the way you get into the groove! Riff 1

Build-up to Chorus
Riff 3
E----------------------------------------------------------------------------|
B----------------------------------------------------------------------------|
G-----------------55--55--55--55--77--77--77--77--99--99--99-----------------|
D-----------------55--55--55--55--55--55--55--55--77--77--77-----------------|
A-77--77--77--77--33--33--33--33--55--55--55--55--77--77--77-----------------|
E-55--55--55--55-------------------------------------------------------------|

Chorus
E--------|------------|--------|-----------| x2
B--------|------------|--------|-----------| x2
G--------|------------|-5555-x2|-7777-x2---| x2
D-7777-x2|-14141414-x2|-5555-x2|-7777-x2---| x2
A-7777-x2|-14141414-x2|-3333-x2|-5555-x2---| x2
E-5555-x2|-12121212-x2|--------|-----------| x2