Misc. Unsigned Bands - Acid Reflex - Bad Habit Text Guitar Tab

Learn song with the online tabulature player
Intro
E-----------------------|-------------|
B-----------------------|-------------|
G--------9----7-67------|---9/11\9----|
D---777-----------------|-------------|
A-----------------------|-------------|
E-----------------------|-------------|(4x)
                         (on 4th time)
Verse
E-----------------------|-------------|
B-----------------------|-------------|
G----------9----7--6--7-|---9/11\9----|
D--7-7-7---9----7--6--7-|---9/11\9----|
A--7-7-7---7----5--4--5-|---7/ 9\7----|
E--5-5-5----------------|-------------|(8x)
                         (on 4th time)
Chorus
E-----------------------|
B-----------------------|
G-----7--9--7-6--7------|
D--7--7--9--7-6--7------|
A--7--5--7--5-4--5------|
E--5--------------------|(5x)