Misc. Unsigned Bands - Aequitas - Zeven Dagen Langsieben Tage Lang Text Guitar Tab

Learn the song with the online tablature player
e|-------------------------------------------------------|
B|---3--3--0--1-------3--3--1--0-3--3p1p0-1-----0--------|
G|--------------2--02------------------------2-----0--2--|
D|-------------------------------------------------------|
A|-------------------------------------------------------|
E|-------------------------------------------------------| X2

e|------------0-0--1-----0~------------------------------------------------------|
B|---0--1--3----------3------3--3--0--1-------3--3--1--0-3--3p1p0-1-----0--------|
G|--------------------------------------2--02------------------------2-----0--2--|
D|-------------------------------------------------------------------------------|
A|-------------------------------------------------------------------------------|
E|-------------------------------------------------------------------------------| X2

So das sollte so stimmen;)
Viel Spaß beim nachspielen=)