Misc. Unsigned Bands - Alex Kaneko - Wings Text Guitar Tab

Learn the song with the online tablature player
Alex Kaneko - Wings

Intro

e|--3-----3------3-----3------3-----3------3--|
B|--3-3---3-3----3-----3------3-----3------3--|
G|--0-----0--------0-----0------0-----0-------|
D|---------------2-----2----------------------|
A|----------------------------2-----2------3--|
E|--------------------------------------------|

Verse 1

e|--3-----2h3----3-----2h3----3-----0h3---------------|
B|--3-----3------3-----3------3-----3------3-----3----|
G|----0------------2------------0----------0-0---0-0--|
D|---------------0-----0------------------------------|
A|--2-----2-------------------3-----3-----------------|
E|-----------------------------------------3-----2----|

e|--3-----2h3----3-----0h3----3-----2h3----3----------|
B|--3-----3------3-----3------3-----3------3----------|
G|----0------------0------------0---------------------|
D|----------------------------------------------------|
A|--2-----2------3-----3------2-----2------3----------|
E|----------------------------------------------------|

Verse 2

e|--3-----2h3----3-----2h3----3-----0h3---------------|
B|--3-----3------3-----3------3-----3------3-----3----|
G|----0------------2------------0----------0-0---0-0--|
D|---------------0-----0------------------------------|
A|--2-----2-------------------3-----3-----------------|
E|-----------------------------------------3-----2----|

e|--3-----2h3----3-----0h3----3-----2h3---------------|
B|--3-----3------3-----3------3-----3------3----------|
G|----0------------0------------0----------0----------|
D|----------------------------------------------------|
A|--2-----2------3-----3------2-----2-----------------|
E|-----------------------------------------2----------|

Pre-Chorus

e|--3-----3------3-----2h3----3-----3-----0-----0------3----2--|
B|--3-----3------3-----3------3-----3-----3-----3------3-------|
G|----0-----0------0------------0-----0-----0-----0------------|
D|-----------------------------------------------------0-------|
A|--3-----3------2-----2------3-----3-----3-----3--------------|
E|-------------------------------------------------------------|

Chorus 1

e|--3-----3------3-----3------3-----3------3-----3----|
B|--3-3---3-3----3-----3------3-----3------3-----3----|
G|--0-----0--------0-----0------0-----0------0-----0--|
D|---------------2-----2------------------------------|
A|----------------------------2-----2------3-----3----|
E|----------------------------------------------------|

e|--3-----3------3-----3------3-----3------3--|
B|--3-3---3-3----3-----3------3-----3------3--|
G|--0-----0--------0-----0------0-----0-------|
D|---------------2-----2----------------------|
A|----------------------------2-----2------3--|
E|--------------------------------------------|

Verse 1
Verse 2
Pre-Chorus

Chorus 2

e|------3----------3---------3----------3---------------|
B|----3----------3---------3----------3-----------------|
G|--0----------0---------0----------0-------------------|
D|-----------2------------------------------------------|
A|---------------------2----------3---------------------|
E|------------------------------------------------------|

e|------3----------3---------3--------3----3-----3------|
B|----3----------3---------3-----3-------------3---3----|
G|--0----------0---------0-----0------0--0---0-------0--|
D|-----------2------------------------------------------|
A|---------------------2--------------3-----------------|
E|------------------------------------------------------|

Bridge
    Am7        Em7      Cadd9
e|------3----------3----3-----3-----------------|
B|--1-----1-----------------3-----3-------------|
G|----2--------0--------0-----------0-----------|
D|--2------------2--------2-----2---------------|
A|-------------2--------3-----------------------|
E|----------------------------------------------|
    Am7        Em7      Cadd9
e|------3----------3----3-----3-----------------|
B|--1-----1-----------------3-----3-------------|
G|----2--------0--------0-----------0-----------|
D|--2------------2--------2-----2---------------|
A|-------------2--------3-----------------------|
E|----------------------------------------------|
    Am7        Em7      Cadd9
e|------3----------3----3-----3----0----3----2--|
B|--1-----1-----------------3------3----3-------|
G|----2--------0--------0-----------------------|
D|--2------------2--------2-------------0-------|
A|-------------2--------3----------3------------|
E|----------------------------------------------|

Chorus 3

e|--3-----3------3-----3------3-----3------3-----3----------|
B|--3-3---3-3----3-----3------3-----3------3-----3----------|
G|--0-----0--------0-----0------0-----0------0-----0--------|
D|---------------2-----2------------------------------------|
A|----------------------------2-----2------3-----3----------|
E|----------------------------------------------------------|

e|--3-----3------3-----3------3-----3------3------3------3--|
B|--3-3---3-3----3-----3------3-----3------3-3----3-3----3--|
G|--0-----0--------0-----0------0-----0---------------------|
D|---------------2-----2---------------------------------0--|
A|----------------------------2-----2------3------3---------|
E|----------------------------------------------------------|

Outro
                                                           G
e|--3-----2---3------------3-----3------------3------------3--|
B|--3---3----------------3-----3------------3---3---3------3--|
G|----0-----0---0------2-----2-----2------0-------0---0----0--|
D|-------------------0-------------------------------------0--|
A|--2-----------------------------------3------------------2--|
E|---------------------------------------------------------3--|