Misc. Unsigned Bands - Alexic - The Letter Text Guitar Tab

Learn the song with the online tablature player
                             Alexic - The Letter

Intro
e|-----------------|-------------|--------------|-----------------|
B|----3-----3------|-----2----2--|--------------|-----------------|
G|--4---4-----4---4|---4---4----4|-----7--------|-----------------|
D|--------4-----4--|-4-------4---|---7---7---7--|------7-----7----|
A|-2---------------|-------------|-5-------5---5|----7---7-----7--|
E|-----------------|-------------|--------------|-5--------5-----5|

e|-----------------|-------------|--------------|-----------------|
B|----3-----3------|-----2----2--|--------------|-----------------|
G|--4---4-----4---4|---4---4----4|-----7--------|-----------------|
D|--------4-----4--|-4-------4---|---7---7---7--|-----------------|
A|-2---------------|-------------|-5-------5---5|-----------------|
E|-----------------|-------------|--------------|-5~~~~~----------|

Take back the roses...
e|-x-----x-----x-----x--------------------------------------------|
B|-3-----2-----x-----x--------------------------------------------|
G|-4-----4-----7-----x--------------------------------------------|
D|-4-----4-----5-----7--------------------------------------------|
A|-2-----2-----5-----7--------------------------------------------|
E|-------------x-----5--------------------------------------------|

Almost on top of the world...
e|-x-----x-----x-----x--------------------------------------------|
B|-x-----x-----x-----x--------------------------------------------|
G|-x-----7-----x-----x--------------------------------------------|
D|-5-----7-----9-----7--------------------------------------------|
A|-5-----5-----9-----7--------------------------------------------|
E|-3-----x-----7-----5--------------------------------------------|

As it fades i can hear as the window breaks....
e|----------------------------------------------------------------|
B|----------------------------------------------------------------|
G|----------------------------------------------------------------|
D|-9-----5-----2-----7--------------------------------------------|
A|-9-----5-----2-----7--------------------------------------------|
E|-7-----3-----0-----5--------------------------------------------|
   ...............P.A.L.M..............M.U.T.E.D.................

Here it comes I'm the one with the broken heart...
e|----------------------------------------------------------------|
B|----------------------------------------------------------------|
G|----------------------------------------------------------------|
D|-x-x-9-x-x-9-x-x-9-x-x-9-x-x-5-x-x-5-x-x-5-x-x-5----------------|
A|-x-x-9-x-x-9-x-x-9-x-x-9-x-x-5-x-x-5-x-x-5-x-x-5----------------|
E|-x-x-7-x-x-7-x-x-7-x-x-7-x-x-3-x-x-3-x-x-3-x-x-3----------------|

...Never seemed so alive...
e|----------------------------------------------------------------|
B|----------------------------------------------------------------|
G|----------------------------------------------------------------|
D|-x-x-2-x-x-2-x-x-2-x-x-2-x-x-4-4-4-4-4~~------------------------|
A|-x-x-2-x-x-2-x-x-2-x-x-2-x-x-4-4-4-4-4~~------------------------|
E|-x-x-0-x-x-0-x-x-0-x-x-0-x-x-2-2-2-2-2~~------------------------|

As it fades i can hear as the window breaks....
e|----------------------------------------------------------------|
B|----------------------------------------------------------------|
G|----------------------------------------------------------------|
D|-9-------5-------2-2-2-2-2-2-7-7-7-7-7-7------------------------|
A|-9-x4----5-x4----2-2-2-2-2-2-7-7-7-7-7-7------------------------|
E|-7-------3-------0-0-0-0-0-0-5-5-5-5-5-5------------------------|

Here it comes I'm the one with the broken heart...
e|----------------------------------------------------------------|
B|----------------------------------------------------------------|
G|----------------------------------------------------------------|
D|-9-------5-------2-2-2-2-2-2-7-7-7-7-7-7~-----------------------|
A|-9-x4----5-x4----2-2-2-2-2-2-7-7-7-7-7-7~-----------------------|
E|-7-------3-------0-0-0-0-0-0-5-5-5-5-5-5~-----------------------|

Take back the roses...
e|-x-----x-----x-----x--------------------------------------------|
B|-3-----2-----x-----x--------------------------------------------|
G|-4-----4-----7-----x--------------------------------------------|
D|-4-----4-----5-----7--------------------------------------------|
A|-2-----2-----5-----7--------------------------------------------|
E|-------------x-----5--------------------------------------------|

Why walk away when you always turn back...
e|-x-----x-----x-----x---|----------------------------------------|
B|-x-----x-----x-----x---|----Second time play this at end--------|
G|-x-----7-----x-----x---|----------------------------------------|
D|-5-----7-----9-----7---|-------------7-------7------------------|
A|-5-----5-----9-----7---|-----------7---7---7---7----------------|
E|-3-----x-----7-----5---|--------5--------5-------5--------------|

It's a call to the keepers of the light...
e|----------------------------------------------------------------|
B|----------------------------------------------------------------|
G|----------------------------------------------------------------|
D|-9-----5-----2-----7--------------------------------------------|
A|-9-----5-----2-----7--------------------------------------------|
E|-7-----3-----0-----5--------------------------------------------|
   ...............P.A.L.M..............M.U.T.E.D.................

Here it comes I'm the one with the loaded gun...
e|----------------------------------------------------------------|
B|----------------------------------------------------------------|
G|----------------------------------------------------------------|
D|-x-x-9-x-x-9-x-x-9-x-x-9-x-x-5-x-x-5-x-x-5-x-x-5----------------|
A|-x-x-9-x-x-9-x-x-9-x-x-9-x-x-5-x-x-5-x-x-5-x-x-5----------------|
E|-x-x-7-x-x-7-x-x-7-x-x-7-x-x-3-x-x-3-x-x-3-x-x-3----------------|

should of known it when you saw it in my eyes.
e|----------------------------------------------------------------|
B|----------------------------------------------------------------|
G|----------------------------------------------------------------|
D|-x-x-2-x-x-2-x-x-2-x-x-2-x-x-4-x-x-4-x-x-4-x-x-4-x-x-4~---------|
A|-x-x-2-x-x-2-x-x-2-x-x-2-x-x-4-x-x-4-x-x-4-x-x-4-x-x-4~---------|
E|-x-x-0-x-x-0-x-x-0-x-x-0-x-x-2-x-x-2-x-x-2-x-x-2-x-x-2~---------|

It's a call to the keepers of the light...
e|----------------------------------------------------------------|
B|----------------------------------------------------------------|
G|----------------------------------------------------------------|
D|-9-------5-------2-2-2-2-2-2-7-7-7-7-7-7------------------------|
A|-9-x4----5-x4----2-2-2-2-2-2-7-7-7-7-7-7------------------------|
E|-7-------3-------0-0-0-0-0-0-5-5-5-5-5-5------------------------|

here it comes im the one with the loaded gun...
e|----------------------------------------------------------------|
B|----------------------------------------------------------------|
G|----------------------------------------------------------------|
D|-9-------5-------2-2-2-2-2-2-7-7-7-7-7-7------------------------|
A|-9-x4----5-x4----2-2-2-2-2-2-7-7-7-7-7-7------------------------|
E|-7-------3-------0-0-0-0-0-0-5-5-5-5-5-5------------------------|

Take back the roses...
e|-x-----x-----x-----x--------------------------------------------|
B|-3-----2-----x-----x--------------------------------------------|
G|-4-----4-----7-----x--------------------------------------------|
D|-4-----4-----5-----7--------------------------------------------|
A|-2-----2-----5-----7--------------------------------------------|
E|-------------x-----5--------------------------------------------|

That's it. Listen to the song for correct strumming and picking.
Here are the lyrics:

Take back the roses, take back the letters, im sleeping alone and it holds me much better.
Turn back the pages, the poems to the dead, im dreaming too high up and falling instead.
Almost on top of the world and we'd fallen, we could have been saved with the effort you
followed you words from the letters you'd send, the last on my nightstand im leaving unread.

as it fades i can hear as the window breaks, these consequences never seemed so grave,
it comes im the one with the broken heart, my inspiration never seemed so alive.

Why walk away when you always turn back
, she's hurt me before but im smarter than that,
(i've hurt your before but your smarter than that)
i've lost the key to that glow in your eyes,
(you've lost the key to that glow in my eyes)
im all by myself and that's fine.
(your all by yourself and that's fine)

It's a call to the keepers of the light, the weak need not apply, glory fades when
dies, here it comes im the one with the loaded gun, im not afraid to make this fun, shoulda
it when you saw it in my eyes.

Now in the darkness, the candle we lit, Barely still burning and begging for wind, i'll
that im stronger, now after i've died, and i'll put out the candle and force it aside.