Misc. Unsigned Bands - Alexis Texas - Peach Bomb Text Guitar Tab

Learn song with the online tabulature player
Alexis Texas
Peach bomb
Enjoy!


Verse:
E|---------------------------------------------------------------------------|
B|---------------------------------------------------------------------------|
G|-----------9---------------------------------------------------------------|
D|-------7-9-----------------------------------------------------------------|
A|-7-7-0---------------------------------------------------------------------|
E|---------------------------------------------------------------------------|


X= palm mute

Chours:
E|---------------------------------------------------------------------------|
B|---------------------------------------------------------------------------|
G|-9-------------7-----------------------------------------------------------|
D|-7-xx---9-9-xx-5--xx--7-7--------------------------------------------------|
A|---xx---7-7-xx----xx--5-5--------------------------------------------------|
E|---------------------------------------------------------------------------|