Misc. Unsigned Bands - All Faces Down - Get Wasted Text Guitar Tab

Learn the song with the online tablature player
ALL FACES DOWN - Get Wasted

1st verse
1st part
-----------------------------------------------------------------|
-----------------------------------------------------------------|
-----------------------------------------------------------------|
0-0-0--0--0--00-0-0-0-0-0--0-0-0--0--0--00-0-0-0-0-0-------------|
0-0-0--0--0--00-0-0-0-0-0--0-0-0--0--0--00-0-0-0-0-0-------------|x2
0-0-0--0--0--00-0-0-0-0-0--0-0-0--0--0--00-0-0-0-0-0-------------|

----------------------------------------------------------------|
----------------------------------------------------------------|
----------------------------------------------------------------|
0-0-0--0--0--00000--8-8-8--8-8-10-10-10-10-10-------------------|
0-0-0--0--0--00000--8-8-8--8-8-10-10-10-10-10-------------------|
0-0-0--0--0--00000--8-8-8--8-8-10-10-10-10-10-------------------|

----------------------------------------------------------------|
----------------------------------------------------------------|
----------------------------------------------------------------|
0-0-0--0--0-00-0-0-0-0-0--8-8-8--8--8--1010-10-10-10-10-10------|
0-0-0--0--0-00-0-0-0-0-0--8-8-8--8--8--1010-10-10-10-10-10------|
0-0-0--0--0-00-0-0-0-0-0--8-8-8--8--8--1010-10-10-10-10-10------|

1st verse
2nd part

-----------------------------------------------------------------|
-----------------------------------------------------------------|
-----10---9----5--------10----12----7--------10----9----5----3-5-|
0-------------------0--------------------0-----------------------|
0----8----7----3----0----8----10----5----0----8----7----3----1-3-|
0-------------------0--------------------0-----------------------|

-----------------------------------------------------------------|
-----------------------------------------------------------------|
----14---12----9---------14---11---10--------14---12---9---10-12-|
0-------------------0--------------------0-----------------------|
0---12---10----7----0----12---13----8----0---12---10---7----8-10-|
0-------------------0--------------------0-----------------------|

chorus

-----------------------------------------------------------------|
-----------------------------------------------------------------|
-----------------------------------------------------------------|
0---------8----10----0---------8----10---------------------------|
0----8----8----10----0----8----8----10---------------------------|x2
0----7----8----10----0----7----8----10---------------------------|

chorus
lead guitar

----------------------------------------------------------------|
----------------------------------------------------------------|
----------------------------------------------------------------|
0-0-12-0-10-12-0-0-12-0-0-15-0-14-0-0-0-0-----------------------|
----------------------------------------------------------------|
----------------------------------------------------------------|

2nd verse
1st guitar

-----------------------------------------------------------------|
-----------------------------------------------------------------|
-----10---9----5--------10----12----7--------10----9----5----3-5-|
0-------------------0--------------------0-----------------------|
0----8----7----3----0----8----10----5----0----8----7----3----1-3-|
0-------------------0--------------------0-----------------------|

2nd verse
2nd guitar

-----------------------------------------------------------------|
-----------------------------------------------------------------|
----14---12----9---------14---11---10--------14---12---9---10-12-|
0-------------------0--------------------0-----------------------|
0---12---10----7----0----12---13----8----0---12---10---7----8-10-|
0-------------------0--------------------0-----------------------|

chorus

-----------------------------------------------------------------|
-----------------------------------------------------------------|
-----------------------------------------------------------------|
0---------8----10----0---------8----10---------------------------|
0----8----8----10----0----8----8----10---------------------------|x2
0----7----8----10----0----7----8----10---------------------------|

chorus
lead guitar

----------------------------------------------------------------|
----------------------------------------------------------------|
----------------------------------------------------------------|
0-0-12-0-10-12-0-0-12-0-0-15-0-14-0-0-0-0-----------------------|
----------------------------------------------------------------|
----------------------------------------------------------------|

breakdown

-----------------------------------------------------------------|
-----------------------------------------------------------------|
-----------------------------------------------------------------|
0-0-0--0--0--00-0-0-0-0-0--0-0-0--0--0--00-0-0-0-0-0-------------|
0-0-0--0--0--00-0-0-0-0-0--0-0-0--0--0--00-0-0-0-0-0-------------|x2
0-0-0--0--0--00-0-0-0-0-0--0-0-0--0--0--00-0-0-0-0-0-------------|