Misc. Unsigned Bands - All Saints Day - Katie V Your For Me Text Guitar Tab

Learn song with the online tabulature player
-----------------------------------|
-----------------------------------|
--5---------------3----------------|
--6---------------4----------------|
--7-----7h9p7-----5----------------|
--5-5/7-7-----7\3-3----------------|


----x---------x---x-----5-------------|
----x---------x-4-x-----6-------------|
-5--x-7-----3-x-5-x-----7-------------|
-6----8-----4---6---------------------|
-7----9-----5-------------------------|
-5----7-7\3-3-------5/7---------------|