Misc. Unsigned Bands - Amadeus - Chasing The Sun Text Guitar Tab

Learn the song with the online tablature player
e|---------------------------------------------------------------------------|
B|---------------------------------------------------------------------------|
G|---------------------------------------------------------------------------|
D|-2-2---------------5-5-----------------------------------------------------|
A|-0-0-5p3p0-3-0---0-3-3-----------------------------------------------------|
E|---------------3-----------------------------------------------------------|

e|---------------------------------------------------------------------------|
B|---------------------------------------------------------------------------|
G|-7-xx-7-xx-7-xx-7-xx-5-xx-5-xx-5-xx-5--------------------------------------|
D|-7-xx-5-xx-7-xx-7-xx-5-xx-5-xx-5-xx-5--------------------------------------|
A|-5-xx-5-xx-5-xx-5-xx-3-xx-3-xx-3-xx-3--------------------------------------|
E|---------------------------------------------------------------------------|