Misc. Unsigned Bands - Amezops3 - Pit Of Spikes Text Guitar Tab

Learn the song with the online tablature player
¥Song By Amezops3¥
 ¥Pit of Spikes¥

With lots of distortion
~ = Let Ring

Hope you like it 'cuz I made it hard!!!

e|---0~~~~~~~~-----------------------------------------------|
 |---0~~~~~~~~-----------------5---------------5-------------|
 |---0~~~~~~~~----------------666-------------666------------|
 |---0~~~~~~~~---------------77777-----------77777-----------|
 |---0~~~~~~~~------------8888888888-------8888888888--------|
E|---0~~~~~~~~--999999999999999999999999999999999999999999999|

e|--------------------------------------------------|
 |--------------------5---------------5-------------|
 |-------------------666-------------666------------|
 |------------------77777-----------77777-----------|
 |---------------8888888888-------8888888888--------|
E|99999999999999999999999999999999999999999999999999|

e|--------------------------------------------------|
 |--------------------5---------------5-------------|
 |-------------------666-------------666------------|
 |------------------77777-----------77777-----------|
 |---------------8888888888-------8888888888--------|
E|99999999999999999999999999999999999999999999999999|

solo
repeat twice
e|----------15--------------5------------------17--|
 |--------16--14-----------6-4-----------------28--|
 |------17------13--------7---3----------------39--|
 |----18----------12-----8-----2---------------410-|
 |--19--------------11--9-------1--------------511-|
E|20------------------10---------0~~~~~~~~-----612-|

chorus
e|10-10-10-10-10-10-10-10-10-10-20-20-20-20-20-15-15|
 |------10-10-------10-10-------20-20-------20-15---|
 |---------10----------10----------20----------15---|
 |--------------------------------------------------|
 |--------------------------------------------------|
E|--------------------------------------------------|

chorus
chorus

e|20~~~~~~~~~~~~~~~~~~~~~~~~~~~~~~~~~~~~~~~~~~~~~0--|
 |20~~~~~~~~~~~~~~~~~~~~~~~~~~~~~~~~~~~~~~~~~~~~~0--|
 |20~~~~~~~~~~~~~~~~~~~~~~~~~~~~~~~~~~~~~~~~~~~~~0--|
 |20~~~~~~~~~~~~~~~~~~~~~~~~~~~~~~~~~~~~~~~~~~~~~0--|
 |20~~~~~~~~~~~~~~~~~~~~~~~~~~~~~~~~~~~~~~~~~~~~~0--|
E|20~~~~~~~~~~~~~~~~~~~~~~~~~~~~~~~~~~~~~~~~~~~~~0--|

Lyrics:

Falling in a pit of spikes
Goring you through the gut
Bleeding like a sprinkler
Open wounds leaking on the ground
being devoured by death

guitar solo

chorus
Pit of spikes
Pit of spikes
Pit of spikes
Pit of spikes
Woo Woo

chorus
chorus

outro
Pit of spikes yeahhhhhhhhhhhhhhhhhhh.
Death!.