Misc. Unsigned Bands - Among The Aftermath - Infamous Text Guitar Tab

Learn the song with the online tablature player
|1|----------------------------------------------------------------------||
|2|----------------------------------------------------------------------||
|3|-9h10---------9--10s-12-14-12-10--------------------------------------||
|4|-----10----10---------------------------------------------------------||
|5|--------12------------------------------------------------------------||
|6|----------------------------------------------------------------------||
                            *Solo Continued*
|1|----------------------------------------------------------------------||
|2|----------------------------------------------------------------------||
|3|----------------------------------------------------------------------||
|4|---14-12-10---------12-15--14-----------------------------------------||
|5|-------------12-15-------------15-17----------------------------------||
|6|----------------------------------------------------------------------||

                             *Solo Ending*
|1|--12h13---------------------------------------------------------------||
|2|--------15-13---------------------------------------------------------||
|3|--------------12--15-17-19--------------------------------------------||
|4|----------------------------19-17-------------------------------------||
|5|----------------------------------------------------------------------||
|6|----------------------------------------------------------------------||