Misc. Unsigned Bands - Amused - The Crazy Maisie Text Guitar Tab

Learn the song with the online tablature player
Intro.
--------------------------------|
--------------------------------|
--------------------------------|
-5-1-3--1-3--5-1-3--------------|
-7-3-5--3-5--7-3-5--------------|
--------------------------------|   x 3

Verse.
--------------------------------|
--------------------------------|
--------------------------------|
-5----1----3---1---3------------|
--7----3----5---3---5-----------|
--------------------------------|     x2
[x4] [x4] [x4][x2] [x2]

Verse.

--------------------------------|
--------------------------------|
--------------------------------|   same time as previous
--5----1----3---1---3-----------|
--7----3----5---3---5-----------|
--------------------------------|      x2

Solo 1

-------------------------------------|
-------------------------------------|
-------------------------------------|
-7-----5------3--------7-7-5-5-3-3-1-|
--9-9----7-7----5-5----9-9-7-7-5-5-3-|
-------------------------------------|  x6
 x3     x3       x3

Solo 2

--------------------------------------|
--------------------------------------|
--------------------------------------|
---7--7--7--7--7----------------------|
----7--7--7--7--7-----------777777----|
--------------------------------------|

------------------------------------------------------------------|
--15151515151515-14141414141414-12121212121212--14141515-14141515-|
------------------------------------------------------------------|
------------------------------------------------------------------|
------------------------------------------------------------------|
------------------------------------------------------------------|

Verse.

Outro.

--------------------------------------------|
--------------------------------------------|
--------------------------------------------|
-777777-------------------------------------|
-999999-777777-9-9-9-9-9--555555 -----------|
--------999999-1212121212-777777------------|