Misc. Unsigned Bands - An Endless Sporadic - The Adventures Of Jabubu Text Guitar Tab

Learn song with the online tabulature player
-------------------------------------------------------------------------------
                             the adventures of jabubu - AES
-------------------------------------------------------------------------------
Tabbed by: thetroy
Tuning: drop d - this tab isnt drop d but the song for sure is

intro
e|-21--17-14-10--12t14-------------------------------------------------------|
B|---------------------------------------------------------------------------|
G|---------------------------------------------------------------------------|
D|---------------------------------------------------------------------------|
A|---------------------------------------------------------------------------|
E|---------------------------------------------------------------------------|

verse
e|---------------------------------------------------------------------------|
B|-----7-5-------------------------------------------------------------------|
G|-8-6-------8-6-4-2-4~------------------------------------------------------|
D|---------------------------------------------------------------------------|
A|---------------------------------------------------------------------------|
E|---------------------------------------------------------------------------|




verse pt 2  (something like this)
e|---------------------------------------------------------------------------|
B|---------10--10-13-12----------------------------------------------8-------|
G|-7--7h10--------------12-9---------------------7-7h10-9-----7----9---9-7---|
D|---------------------------10-12-9-10-12-10-9~-----------10---10-----------|
A|---------------------------------------------------------------------------|
E|---------------------------------------------------------------------------|

e|---------------------------------------------------------------------------|
B|---------------------------------------------------------------------------|
G|-9-7----7------------------------------------------------------------------|
D|-----10---10\7-------------------------------------------------------------|
A|---------------5~----------------------------------------------------------|
E|---------------------------------------------------------------------------|

next part
e|-----0---0-------2~-----0---0------0-----0~--------------------------------|
B|---2---0-----0h3------2---0------0-----0-----------------------------------|
G|-2------------------2----------0-------------------------------------------|
D|-------------------------------------4-------------------------------------|
A|---------------------------------------------------------------------------|
E|---------------------------------------------------------------------------|

then
e|---------------------------------------------------------------------------|
B|---------------------------------------------------------------------------|
G|-9-99----7-7-7---55-55---4-4-4---4h5-12-12-12---11-11-11----11h12/14-------|
D|------10-------9-------7-------5-------------14----------12----------------|
A|---------------------------------------------------------------------------|
E|---------------------------------------------------------------------------|

e|---------------------------------------------------------------------------|
B|---------------------------------------------------------------------------|
G|-17-17-17----16-16/21-19~--------------------------------------------------|
D|----------19---------------------------------------------------------------|
A|---------------------------------------------------------------------------|
E|---------------------------------------------------------------------------|



there, NOW thats all i know. come on. its AES. i cant figure them out


| /  slide up
| \  slide down
| h  hammer-on
| p  pull-off
| ~  vibrato
| +  harmonic
| x  Mute note
===============================================================================