Misc. Unsigned Bands - Anastasis Takeover - Through The Iron Gate Text Guitar Tab

Learn the song with the online tablature player
Anastasis Takeover - Through the Iron Gate  C  2008 Anastasis Recording Inc.

use standard tning for this one.....it ain't a bad tune either...

e----------------------------------------------------------------------------|
b----------------------------------------------------------------------------|
g----------------------------------------------------------------------------|
d------------5----------------5----4---------------------------5-------------|
a-----5---7-----------5---7------------5------------5----7-------------------|
e--0--------------0--------------------------0-----------------------0-------|

e--------------------------------------------------------------------------|
b--------------------------------------------------------------------------|
g--------------------------------------------------------------------------|
d-------------5--------------------5-------4/5/4---------------------------|
a--5-----7-------------5-----7----------------------5----------------------|
e-----------------0--------------------------------------------------------|