Misc. Unsigned Bands - Andrew Ripp - Its All Good Text Guitar Tab

Learn the song with the online tablature player
Chords used:
e|-----------------------------|
b|-----------------------------|
g|--4---4---4---4---4---1---2--|
D|--2---2---2---2---4---2---2--|
A|------2---2---4---2---2------|
E|--x-------4------------------|

Intro
x2) -

Verse
x2) -

Prechorus
x2) –

|----------xxxxxx----------------|
|----------xxxxxx----------------|
|--444--4--xxxxxx--444---444--4--|
|--222--2--xxxxxx--222---222--2--|
|-------2--xxxxxx--222--2h44--2--|
|--xxx-----xxxxxx--444-----------|

I’m 50 miles to Chicago
There’s not fight
She don’t care if I’m wrong or right
Hidden songs on the freedom shelter, well I
I don’t know if I can reach it cuz

She loves, she loves
Like a marigold
Never feeling like we’re growing old
Come on, come on
You give me piece of mind
Everyday and all the time

Chorus
x1) -

|------------------------------------------|
|------------------------------------------|
|--444444--444444--44--4444--44444--44444--|
|--222222--444444--22--2222--22222--44444--|
|----------222222--22--4444---------22222--|
|--xxxxxx--------------------xxxxx---------|

It’s all good
When you think about it
You can laugh about it
It’s all good
It’s all good

   Verse 2 –
Prechorus
(Same as first)

I fell in love with the daughter of Daniel
She took me up to the peak of an aerial
I aint holding on to nothing to no one
When freedom rings
With the song made for everyone

She loves, she loves
Like a marigold
Never feeling like we’re growing old
Come on, come on
She gives me piece of mind
Everyday and all the time

Bridge
x10) -

|-----------------|
|-----------------|
|--1-1111—-222p1--|
|--2-2222—-222-2--|
|--2-2222---------|
|-----------------|

Mmmmm, knock me down
I’m gonna get back up
Feel my heart beating with your love
Sunny days, rainy nights
I know and you know and we know baby It’s all right
It’s all right

Verse 3
x1)–

|-----xxxxxx--------xxxxxx-----------|
|-----xxxxxx--------xxxxxx-----------|
|--4--xxxxxx--44-4--xxxxxx--4--4--4--|
|--2--xxxxxx--22-2--xxxxxx--2--2--2--|
|-----xxxxxx--22-2--xxxxxx--4--2-----|
|-----xxxxxx-----4--xxxxxx-----------|

50 miles to Chicago
There’s not fight
She don’t care if I’m wrong or right
Hidden songs on the freedom shelter, well I
I don’t know if I can reach it cuz

Prechorus
x1) –

Chorus
x2) -
(Same as first)

She loves, she loves
Like a marigold
Never feeling like we’re growing old
Come on, come on
She gives me piece of mind
Everyday and all the time

It’s all good
When you think about it
You can laugh about it
It’s all good
When you think about it
You can laugh about it
It’s all good
It’s all good

Bridge
x5) -
(Same as first)

It’s all good
It’s all good

   End with E