Misc. Unsigned Bands - Antagonist - The Nameless Shall Inherit The Earth Text Guitar Tab

Learn the song with the online tablature player
Intro/The Epic Riff:

D--------------------12h>17p>12--------------------------12h>17p>12-------|
A----------sweep>--13----------13--------------sweep>--13----------13-----|
F----------------14--------------14------------------14--------------14---|
C-------------------------------------------------------------------------|
G-0-0-0-0-0---------------------------0-0-0-0-0---------------------------|
D-------------------------------------------------------------------------|
  . . . . .                           . . . . .

D-----------------------------------------------------------------|
A-----------12h13p12p10h12---------------12h13p12p10h12-9vvv------|
F-----------------------------------------------------------------|
C-----------------------------------------------------------------|
G-----------------------------------------------------------------|
D-1-1-1-1-1------------------0-0-0-0-0----------------------------|
  . . . . .                  . . . . .

   I play the riff above just once in the beginning of the song and then
 i play the riff a little different which will make me play the higher
parts of the harmony when the second guitar begins to play. Here is how i play it after:

Intro/The Epic Riff 2

D--------------------12h>17p>12--------------------------12h>17p>12-------|
A----------sweep>--13----------13--------------sweep>--13----------13-----|
F----------------14--------------14------------------14--------------14---|
C-------------------------------------------------------------------------|
G-0-0-0-0-0---------------------------0-0-0-0-0---------------------------|
D-------------------------------------------------------------------------|
  . . . . .                           . . . . .

D----------------------------------------------------------|
A-----------15h17p15p13h15------------15h17p15p13h15-12----|vvv
F----------------------------------------------------------|
C----------------------------------------------------------|
G----------------------------------------------------------|
D-1-1-1-1-1-----------------0-0-0-0-0----------------------|
  . . . . .                 . . . . .

     B

D-----------------------------------------------------------------------|
A-----------------------------------------------------------------------|
F-----------------------------------------------------------------------|
C-----------------------------------------------------------------------|
G---------2-----------2-----------2---6-6-3333----------2-----------2---|
D-1-3-1-0-0---1-3-1-0-0---1-3-1-0-0---4-4-1111--1-3-1-0-0---1-3-1-0-0---|
  . . . .     . . . .     . . . .     . . ....  . . . .     . . . .

D---------------------------------|
A---------------------------------|           Sorry if the timing or notes are kind of
F---------------------------------|           messed up here. Just listen to the song
C---------------------------------|           and you'll figure out how it's played.
G---------666633337777------------|
D-1-3-1-0-444411115555------------|
  . . . . ............

     C

D--------------------------------------------------------------------|
A--------------------------------------------------------------------|
F---------------------------------------------9-9-9-9----------------|
C---------------------------------------------8-8-8-8----------------|
G---------2stop---------2stop---------2stop---7-7-7-7----------2stop-|
D-1-3-1-0-0stop-1-3-1-0-0stop-1-3-1-0-0stop------------1-3-1-0-0stop-|
  . . . .       . . . .       . . . .           . .    . . . .

D------------------------------------|
A------------------------------------|
F------------------------------------|
C------------------------------------|
G---------2stop---------666633337777-|
D-1-3-1-0-0stop-1-3-1-0-444411115555-|
  . . . .       . . . . ............

     D

D----------------------------------------------------------------|
A----------------------------------------------------------------|
F-7----------------------------10---------------------------10---|
C-7-----------3p0h7p0h3p0h7p0--10-----------3p0h10p0h8p0h7--10---|
G-5---555555-------------------8 ---888888------------------8 ---|
D----------------------------------------------------------------|continued..
      ......                        ......

D--------------------------------------|
A--------------------------------------|
F-----------------9----------5---------|
C-----------------9----------5---------|
G-88888888888888--7--777777--3--333333-|
D--------------------------------------|
  ..............     ......     ......

     E

D--------------------------------------------------------------------------|
A--------------------------------------------------------------------------|
F--------------------------------------------------------------------------|
C-3p0h7p0-x4--7p0h10p0-x4------trempick--12-10-8-10-8-7-8-0-10-8-7-8-7-5-7-|
G---------------------------88---------------------------------------------|
D--------------------------------------------------------------------------|
                            ..          The tremolo picking is slower than
                                        usual tremolo picking.

The last time you play riff E instead of that tremolo picking part you do this:

D-----------------------------------------------------|
A-----------------------------------------------------|
F-----------------------------------------------------|
C----trempick--12-10-8-10-8-7-8--55557777888810101010-|
G-88--------------------------------------------------|
D-----------------------------------------------------|

Riff F/The Second Epic Riff:

D-----------------------------------------------------------------|
A-----------------------------------------------------------------|
F-----------------------------------------5-7--7h9p7h9------------|
C-------------7-9--9h10p9h10--------------------------------------|
G-0-0-0-0-0-------------------0-0-0-0-0---------------------------|
D-------------------------------------------------------1-1-1-1-1-|cont...
  . . . . .                   . . . . .                 . . . . .

D-----------------------------------------|
A-----------------------------------------|
F-10-9--7h9p7h9--------------7-5--4h5p4h5-|
C-----------------------------------------|
G-----------------------------------------|
D----------------0-0-0-0-0----------------|
                 . . . . .

     G

D-----------------------------------------|
A-----------------------------------------|
F-----------------------------------------|
C-----2---------5-------------------------|
G-00000-x4--33333-x4------2---------3-----|
D---------------------00000-x4--11111-x4--|   then....
  ....      ....      ....      ....

D-------------------------------------------------------------------|
A-------------------------------------------------------------------|
F-------------------------------------------------------------------|
C-------------------------------------------------------------------|
G-0000000000000022333333333333335533--------------------------------|
D-----------------------------------0000000000000000111111111111111-|
  .................................................................
SOLO TIME

Solo riff

I got all the tapping parts of the solo right but im not sure with the other part after.

D-12p8p5-x4--13p8p5-x2--12p8p5-x4----15p12p8-x3--13p12p8-x5----17p15p10-x6
A-taptaptaptaptaptaptaptaptaptaptaptaptaptaptaptaptaptataptaptaptaptaptap-
F-------------------------------------------------------------------------|
C-------------------------------------------------------------------------|
G-------------------------------------------------------------------------|
D-------------------------------------------------------------------------|

D-19p16p12-x8-
A-taptaptaptap
F-------------|
C-------------|
G-------------|
D-------------|

D-17vvv----17-19-20-22----20p19h20----------17---22-17-20-17----------------|
A------------------------------------------------------------20-17-20-22-20-|
F------------------------------------fast>----------------------------------|
C------------------------------------part>----------------------------------|
G---------------------------------------------------------------------------|
D---------------------------------------------------------------------------|

D---------------------------------------------------------------------|
A-17---------------------------------17-15-13----------------17-18-20-|
F----19-17-19^19^-19-17-19^17-----------------19-17-16-17-19----------|
C---------------------------------------------------------------------|
G---------------------------------------------------------------------|
D---------------------------------------------------------------------|

D-17-19-20----24-22-20-22-20-19-20-19-17-17-|
A-------------------------------------------|
F-------------------------------------------|
C-------------------------------------------|
G-------------------------------------------|
D-------------------------------------------| end of solo...

After solo riff

Tremolo pick all:

D------------------------------------------|
A------------------------------------------|
F--------------------------------10------9-|
C-------------9------10--------------------|
G------------------------------------------|
D-0----------------------------------------|..

D---------------------------------------------|
A---------------------------------------------|
F---------------------------------------------|
C---------------------------------------------|
G-------------7---8---10---8---7---8---10---8-|
D-0-------------------------------------------|

The Last Riff:

This riff is the last one of the song.

D-------------------------------------------------------------------------|
A-------------------------------------------------------------------------|
F---------------9-9-9-9------------------9h10p9p7h9---------------9-9-9-9-|
C---------------8-8-8-8-------------------------------------------8-8-8-8-|
G---------2-----7-7-7-7-------------2------------------------2----7-7-7-7-|
D-1-3-1-0-0-x4--------------1-3-1-0-0-x2-------------1-3-1-0-0-x2---------|
  . . . .         . .       . . . .                  . . . .        . .

D------------|
A------------|
F-9h10p9p7h10vvv
C------------|
G------------|
D------------| fin.

TIMELINE OF THE SONG!

Intro riff
0:00-0:06)
Intro riff 2 x3 (0:06-0:26)

Riff Bx2
0:26-0:40)

Riff Cx2
0:40-0:53)

Riff Dx2
0:53-1:06)                   Thats pretty much it. Im sure

Riff Ex4
1:06-1:34)                 everything but the solo is accurate.

Riff Fx4
1:34-2:00)                 first tab though. ENJOY!!!

Riff Gx1
2:00-2:18)

Solo x1
2:18-2:36)

After solo x2
2:36-2:56)
Pause
Dun dun dun du dun dun F***.
Intro riff 2 x2 (2:58-3:11)

Riff Bx2
3:11-3:24)
Last Riff (3:24-3:40)