Misc. Unsigned Bands - Antagonist - The Walking Dead Text Guitar Tab

Learn the song with the online tablature player
Hey, anyone who's heard Antagonist knows how mad they are,
thats why i'm going to try and tab the whole "These Cities, Our Graves" album.
Any corrections would be awesome.

After some feedback...

0:05
|--0--|
|--0--|
|--0--|
|--0--|
|--0--|
|--0--|

Intro 0
11 - 0:35  (both guitars)
|----------------------------------------------|
|----------------------------------------------|
|----------------------------------------------|
|---------------------------------------3-1-4--|
|--000000000000000000000000000000000000-3-1-4--|
|--000000000000000000000000000000000000-3-1-4--|
PM ....................................

Chorus 0
36 - 0:57
|----------------------------------------------------------|
|----------------------------------------------------------|
|----------------------------------------------------------|
|----------------------------------------------------------|
|--000-000-00-1-000-000-00-1-000-000-00-1-333-111-333-444--|
|--000-000-00-1-000-000-00-1-000-000-00-1-333-111-333-444--|
PM ... ... ..   ... ... ..   ... ... ..   ... ... ... ...

Verse 0
57 - 1:16
|----------------------------------------|
|----------------------------------------|
|----------------------------------------|
|----00---00---00---00-666-111-444-1/33--|
|--0-00-0-00-0-00-0-00-666-111-444-1/33--|
|--0-00-0-00-0-00-0-00-666-111-444-1/33--|
PM .    .    .    .

1:17 - 1:35
|-----------------------------------------------------------|
|-----------------------------------------------------------| on the last
|-----------------------------------------------------------| time don't
|--1p0-----------------------------4----3----1----3----1h3--| hammer on to
|--1p0-000-000-000-000-000-000-000-4-00-3-00-1-00-3-00-1h3--| the 3rd fret
|--1p0-000-000-000-000-000-000-000-4-00-3-00-1-00-3-00-1h3--|
PM     ... ... ... ... ... ... ...   ..   ..   ..   ..

Chorus 1
35 - 1:55

Verse 1
56 - 2:15

Drum Solo 2
15 - 2:22
|-------------------|
|-------------------|
|-------------------|
|--0~----------0-0--|
|--0~----------0-0--|
|--0~----------0-0--|
PM             . .

2:22 - 2:53 (second time make all single notes chords except for last run)
|----------------------------------|
|----------------------------------|
|----------------------------------|
|----------------------------------|
|-------------------0-0-0-000-000--|
|--3-1-0-11-0-3-1-0-0-0-0-000-000--|
PM                  . . . ... ...

|----------------------------------|
|----------------------------------|
|----------------------------------|
|----------------------------------|
|-------------------0-0-0-000-000--|
|--3-1-0-11-0-3-1-0-0-0-0-000-000--|
PM                  . . . ... ...

|----------------------------------|
|----------------------------------|
|----------------------------------|
|----------------------------------|
|-------------------0-0-0-000-000--|
|--3-1-0-11-0-3-1-0-0-0-0-000-000--|
PM                  . . . ... ...

|--------------------|----------------|
|--------------------|----------------|
|--------------------|----------------|
|--------------------|----------------|
|--------------------|----------------|
|--3-1-0-11-0-3-1-0--|-4-4-4-3-1---|

End