Misc. Unsigned Bands - Anthony - Flower Text Guitar Tab

Learn song with the online tabulature player
INTRO
e|-------------------------------------------------------------|
B|-----------------------------------------------5--3---3------|
G|---------------------------------------0--7--5------0---0----|
D|----0--7--5--4--5--2--2h4p2p0--0--2--5--------------------4--|
A|--5---------------------------------------------------------5|
E|-------------------------------------------------------------|

VERSE 1
e|--------------------------------------------------------------------|
B|------------------------------------------------------5--3---3------|
G|------------------5---------------------------0--7--5------0---0----|
D|----0--7--5--5/7----4--2--0--2h4p2p0--0--2--5--------------------4--|
A|--5----------------------------------------------------------------5|
E|--------------------------------------------------------------------|

PRE-CHORUS
e|--0--------------0-----5---0------------|
B|--3--------3-------3-----3---5p3--------|
G|--0----0-----0-------0-----------0------|
D|--4------4-----4-------------------4----|
A|--5--5-------------------------------5--|
E|----------------------------------------|

CHORUS 1
e|--0\0--------------0-----3---0------------0/0---0------------------|
B|--3\1--------1-------1-----1---3p1--------1/3-------3--------------|
G|--0\0----0-----0-------0-----------0------0/0-----------0----------|
D|--4\2------2-----2-------------------2----2/4---------------4------|
A|--5\3--3-------------------------------3--3/5-------------------5--|
E|-------------------------------------------------------------------|

You repeat everything even the intro... then it goes back into verse 2, pre chorus and 
then the..

INTERLUDE
    C Am Em  D Cadd9  G Cadd9  D   C
e|--0--0--0--2--3-----3--3-----2---0/0-----|
B|--1--1--0--3--3-----3--3-----3---1/3-----|
G|--0--2--2--2--0-----0--0-----2---0/0-----|
D|--2--2--2--0--2-----0--2-----0---2/4-----|
A|--3--0--0-----3-----2--3---------3/5-----|
E|--------------------3--------------------|

Then repeat Verse, pre chorus, and play the chorus 3 times.

Sammi... You drew me that picture so this song is for you. Btw I just wrote all this in 
head and I have NO idea how it sounds lol.