Misc. Unsigned Bands - Anthony - Natashas Song Text Guitar Tab

Learn the song with the online tablature player
e|--------3-----3p2------2h3-----3---|
B|------3---3-------3--------3-------|
G|----0-------0-------0--------0-----|
D|-----------------------------------|
A|-3---------------------------------|
E|-----------------------------------|

e|--------2-----2p0------0---------0h2-----2h3---------3p2p0----0--|
B|------3---3-------3----------3-------3---------3------------3----|
G|----0-------0-------0----------0-------0---------0---------------|
D|-----------------------------------------------------------------|
A|-3---------------------------------------------------------------|
E|-----------------------------------------------------------------|

e|--------0-----0h2------2---------2h3-----3p2---------0h2h3------3|
B|------3---3-------3----------3-------3---------3------------3----|
G|----0-------0-------0----------0-------0---------0------------0--|
D|-----------------------------------------------------------------|
A|-3---------------------------------------------------------------|
E|-----------------------------------------------------------------|

e|--------3-----3h5------5---------5p3-----3h5---------3h5p3h5-----5p3---3-|
B|------3---3-------3----------3-------3---------3-------------3-------3---|
G|----0-------0-------0----------0-------0---------0-------------0---------|
D|-------------------------------------------------------------------------|
A|-3-----------------------------------------------------------------------|
E|-------------------------------------------------------------------------|

e|-3--2--0--5|                  The chords here are strummed however you
B|-3--3--3--3|                  want them to be strummed. Just make sure
G|-0--0--0--0|                  that you throw in a few hammer-ons and
D|-x--x--x--x|                  pull-offs on your high e string.
A|-3--3--3--3|               *Capital X's are not played at all. The
E|-X--X--X--X|               lower case x's are muted with your finger.*

I remember our first kiss
it was the beginning of my new life
That was the one moment i miss

We stood under that light
We held hands and drew in tight
and we kissed for the first time

I love your eyes
I love your smile
I wish I could have stayed for awhile
I knew then
that we would be together
for the better
part of our lives

We spent so much time together
we couldn't stand to be alone
And when we were, we talked until we could no more

A few months past by
Before I realized
That I loved you and could never say "Goodbye"

I love your eyes
I love your smile
I wish I could have stayed for awhile
I knew then
that we would be together
for the better
part of our lives

And that, my baby, is what I miss most
That touch of your lips on mine
so soft and perfect

It's like we were meant to be together
the way our lips fit close and tight.

(normal voice)
"And the way our hands fit perfectly, like the are
a missing piece to a puzzle that have finally been
brought together."

I love your eyes
I love your smile
I wish I could have stayed for awhile
I knew then
that we would be together
for the better
part of our lives

The girl I wrote this for broke up with me as soon as I gave it to her