Misc. Unsigned Bands - Apolitical - Obscene Gestures Text Guitar Tab

Learn the song with the online tablature player
                       Obscene Gestures - A//Political

e|---------------------------------------------------------------------------|
B|---------------------------------------------------------------------------|
G|---------------------------------------------------------------------------|
D|--5-4-2-0------------------------------------------------------------------|
A|----------3-2-0------------------------------------------------------------|
E|----------------3----------------------------------------------------------

e|---------------------------------------------------------------------------|
B|---------------------------------------------------------------------------|
G|-----------------7----------------------------7----------------------------|
D|--5--------------7--------------7-------------7----------------------------|
A|--5--------------5--------------7-------------5----------------------------|
E|--3-----------------------------5------------------------------------------|

| /  slide up
| \  slide down
| h  hammer-on
| p  pull-off
| ~  vibrato
| +  harmonic
| x  Mute note