Misc. Unsigned Bands - Artimus Pyledriver - Swamp Devil Text Guitar Tab

Learn the song with the online tablature player
Swamp Devil by Artimus Pyledriver

INTRO
e------------------------------------------------------------|
B------------------------------------------------------------|
G---------------3----------------3------------------3-5-3-5--|
D-5-5-5-5-5-5-5-3--5-5-5-5-5-5-5-3--5-5-5-5-5-5-5-5-3-5-3-5--|
A-5-5-5-5-5-5-5----5-5-5-5-5-5-5----5-5-5-5-5-5-5-5----------|
E-3-3-3-3-3-3-3----3-3-3-3-3-3-3----3-3-3-3-3-3-3-3----------|

VERSE           x3
e----------------|----------|
B----------------|----------|
G-3--------------|-3-5-3-5--|
D-3-5-5-5-5-5-5--|-3-5-3-5--|
A---5-5-5-5-5-5--|----------|
E---3-3-3-3-3-3--|----------|

CHORUS 0.49          x4
e---------------------|
B---------------------|
G-7-7-7-7-7-7--5-5-5--|
D-7-7-7-7-7-7--5-5-5--|
A-5-5-5-5-5-5--3-3-3--|
E---------------------|

1.50                                                       x3
e-----------------------------------------------------------|
B-----------------------------------------------------------|
G-----------------------------------------------------------|
D-5-3--------------------------5-5-5-5-5-5--3--5-5-5-5-5-5--|
A-----5-4-3-1---1-3-4-3-1------5-5-5-5-5-5--3--5-5-5-5-5-5--|
E-------------3-----------3-1--3-3-3-3-3-3--1--3-3-3-3-3-3--|

continued from above
e---------------------------------|
B---------------------------------|
G---------------------------------|
D-5-3--------------------------5--|
A-----5-4-3-1---1-3-4-3-1------5--|
E-------------3-----------3-1--3--|

2.14
e---------|
B---------|
G---------|
D-5~~~~~--|
A---------|
E---------|

OUTRO 4.18 played under solo
e-------------------------------------|
B-------------------------------------|
G-3-5-3-5-3-5-3-5-3-5--5-3------------|
D-3-5-3-5-3-5-3-5-3-5--5-3-3-5---3-5--|
A----------------------3-1-3-5---3-5--|
E--------------------------1-3---1-3--|

Any corrections please comment
Thanks