Misc. Unsigned Bands - Aspalela - Saiful Apek Text Guitar Tab

Learn song with the online tabulature player
-------------------------------------------------------------------------------
                             SONG NAME - Band Name
-------------------------------------------------------------------------------
Tabbed by:wanBoxxx
Email:anti_pret@yahoo.com

Tuning:standard

e|--------------------------------------------------|
B|--12--10--8--10--10--10----12---10---12---13------|
G|----------------------------------------------10--|
D|--------------------------------------------------|
A|--------------------------------------------------|
E|--------------------------------------------------|


e|--------------------------------------------------|
B|--12--10--8--10--10--10---12---10---12---10-------|
G|----------------------------------------------12--|
D|--------------------------------------------------|
A|--------------------------------------------------|
E|--------------------------------------------------|

e|--------------------------------------------------|
B|--12--10--8--10--10--10----12---10---12---13------|
G|----------------------------------------------10--|
D|--------------------------------------------------|
A|--------------------------------------------------|
E|--------------------------------------------------|

e|----------------------------------|
B|--12--10--8--10--10--10--8--7--8--|
G|----------------------------------|
D|----------------------------------|
A|----------------------------------|
E|----------------------------------|