Misc. Unsigned Bands - Auo - Hersheys Without A Smile Text Guitar Tab

Learn song with the online tabulature player
Intro------------------------------------------------------------------------|Distorted
E----------------------------------------------------------------------------|
B----------------------------------------------------------------------------|
G----------------------------------------------------------------------------|
D--6---9--6-------7----7--5-----9----9--7-----7---7--5-----------------------|
A7---7-----------------------------------------------------------------------|
E--------------5-----5--------7----7--------5---5----------------------------|

Then Play This

E---------------------------------------------------------------------------|
B---------------------------------------------------------------------------|
G---------------------------------------------------------------------------|
D--6---9--6-------7----7--5-----9----9----9--9------------------------------|
A7---7----------------------------------------------------------------------|
E--------------5-----5--------7----7----7---7-------------------------------|Drums Enter
Heres The Basic Riff

E----------------------------------------------------------------------------|
B----------------------------------------------------------------------------|
G---999999999999999999999999999999999----------------------------------------|
D---999999999999999999999999999999999----------------------------------------|
A---777777777777777777777777777777777----------------------------------------|
E----------------------------------------------------------------------------|
Then play this

E---------------------------------------------------------------------------|
B---------------------------------------------------------------------------|
G-----------------------------------------------------------7---------------|
D--6---9--6-------7----7--5-----9----9--7-----7---7--5------5---------------|
A7---7----------------------------------------------------------------------|
E--------------5-----5--------7----7--------5---5---------------------------|