Misc. Unsigned Bands - Aura - Get It While You Can Text Guitar Tab

Learn song with the online tabulature player
Intro:

eb------------------------------------------|
bb------------------------------------------|
gb-------------3---------------3-333h5p3----| x2
db---------3h5---5---------3h5----------5---|
ab-------5---------------5------------------|
eb---3p0-------------3p0--------------------|

eb------------------------------------------|
bb------------------------------------------|
gb-------------5---------------5-555h7p5----|
db---------5h7---7---------5h7----------7---|
ab-------7---------------7------------------|
eb---5p0-------------5p0--------------------|

eb------------------------------------------|
bb------------------------------------------|
gb-------------3---------------3-333h5p3----|
db---------3h5---5---------3h5----------5---|
ab-------5---------------5------------------|
eb---3p0-------------3p0--------------------|

Verse:

eb------------------------------------------------------|
bb------------------------------------------------------|
gb-5-5-3----------5-5-3---------5-5-3---------5-5-7-----|
db-5-5-3----------5-5-3---------5-5-3---------5-5-7-----|
ab-3-3-1----------3-3-1---------3-3-1---------3-3-5-----|
eb------------------------------------------------------|

Chorus as intro

Structure:

Intro
Verse
Chorus
Verse
Chorus
Solo (not here sorry)
Double Chorus
Outro (as intro)


Aura link:
www.myspace.com/aurarockandblues