Misc. Unsigned Bands - Austin Le - Betryal Of The Heart Text Guitar Tab

Learn the song with the online tablature player
                             Betrayal of the Heart - Austin Le

  INTROx2
e|---------------------------------------------------------------------------|
B|---------------------------------------------------------------------------|
G|---------------------------------------------------------------------------|
D|------5-----5---4--------5-----5---4-------5-----5---5-------5-----5---4---|
A|--7-7---7-7---7---7--5-5---5-5---5---5-3-3---3-3---3---3-5-5---5-5---5---5-|
E|---------------------------------------------------------------------------|

                                Verse 1
   pm                      pm                         pm
   Another Time            ANother Place             another    life
e|---------------------------------------------------------------------------|
B|---------------------------------------------------------------------------|
G|---------------------------------------------------------------------------|
D|-5-5-5-5-5-5-5-5-4-4---5-5-5-5-5-5-5-5-4-4---------5-5-5-5-5-5-5-5-4-4-----|
A|-7-7-7-7-7-7-7-7-7-7---5-5-5-5-5-5-5-5-5-5---------3-3-3-3-3-3-3-3-3-3-----|
E|---------------------------------------------------------------------------|

  pm

e|---------------------------------------------------------------------------|
B|---------------------------------------------------------------------------|
G|---------------------------------------------------------------------------|
D|-----------------5-5-5-5-5-5-5-5-4-4---------------------------------------|
A|-----------------5-5-5-5-5-5-5-5-5-5---------------------------------------|
E|---------------------------------------------------------------------------|

                        Verse 2
  pm
    Where am i             left to die      in this wasteland
e|---------------------------------------------------------------------------|
B|---------------------------------------------------------------------------|
G|---------------------------------------------------------------------------|
D|-5-5-5-5-5-5-5-5-4-4---5-5-5-5-5-5-5-5-4-4---------5-5-5-5-5-5-5-5-4-4-----|
A|-7-7-7-7-7-7-7-7-7-7---5-5-5-5-5-5-5-5-5-5---------3-3-3-3-3-3-3-3-3-3-----|
E|---------------------------------------------------------------------------|

e|---------------------------------------------------------------------------|
B|---------------------------------------------------------------------------|
G|---------------------------------------------------------------------------|
D|----------------------5-5-5-5-5-5-5-5-4-4----------------------------------|
A|----------------------5-5-5-5-5-5-5-5-5-5----------------------------------|
E|---------------------------------------------------------------------------|

                        Chorus
   You left me       here  to die               alone
e|---------------------------------------------------------------------------|
B|---------------------------------------------------------------------------|
G|---------------------------------------------------------------------------|
D|-5~-4-----5-------5~------4-5---------------5~---4-5-----------------------|
A|-7~-7-----7-------5~------5-5---------------3~---3-3-----------------------|
E|---------------------------------------------------------------------------|

                        without you
e|---------------------------------------------------------------------------|
B|---------------------------------------------------------------------------|
G|---------------------------------------------------------------------------|
D|--------------------5~---4---5---------------------------------------------|
A|--------------------5~---5---5---------------------------------------------|
E|---------------------------------------------------------------------------|

                      Verse 3
    Here's My heart         i've wrapped it up       do as you please
e|---------------------------------------------------------------------------|
B|---------------------------------------------------------------------------|
G|---------------------------------------------------------------------------|
D|-5-5-5-5-5-5-5-5-4-4---5-5-5-5-5-5-5-5-4-4---------5-5-5-5-5-5-5-5-4-5-----|
A|-7-7-7-7-7-7-7-7-7-7---5-5-5-5-5-5-5-5-5-5---------3-3-3-3-3-3-3-3-3-3-----|
E|---------------------------------------------------------------------------|
                 But I Beg You
e|---------------------------------------------------------------------------|
B|---------------------------------------------------------------------------|
G|---------------------------------------------------------------------------|
D|--------------5-5-5-5-5-5-5-5-4-4------------------------------------------|
A|--------------5-5-5-5-5-5-5-5-5-5------------------------------------------|
E|---------------------------------------------------------------------------|

                        BRIDGE
   Don't leave me    here  to die               alone
e|---------------------------------------------------------------------------|
B|---------------------------------------------------------------------------|
G|---------------------------------------------------------------------------|
D|-5~-4-----5-------5~------4-5---------------5~---4-5-----------------------|
A|-7~-7-----7-------5~------5-5---------------3~---3-3-----------------------|
E|---------------------------------------------------------------------------|
     without you
e|---------------------------------------------------------------------------|
B|---------------------------------------------------------------------------|
G|---------------------------------------------------------------------------|
D|--5~---4---5---------------------------------------------------------------|
A|--5~---5---5---------------------------------------------------------------|
E|---------------------------------------------------------------------------|

                        Verse 4
   Another Chance          Another Lie                 Another heart
e|---------------------------------------------------------------------------|
B|---------------------------------------------------------------------------|
G|---------------------------------------------------------------------------|
D|-5-5-5-5-5-5-5-5-4-4---5-5-5-5-5-5-5-5-4-4---------5-5-5-5-5-5-5-5-4-5-----|
A|-7-7-7-7-7-7-7-7-7-7---5-5-5-5-5-5-5-5-5-5---------3-3-3-3-3-3-3-3-3-3-----|
E|---------------------------------------------------------------------------|
                        Where am i
e|---------------------------------------------------------------------------|
B|---------------------------------------------------------------------------|
G|---------------------------------------------------------------------------|
D|--------------------5-5-5-5-5-5-5-5-4-4------------------------------------|
A|--------------------5-5-5-5-5-5-5-5-5-5------------------------------------|
E|---------------------------------------------------------------------------|

chorus again

solo
e|--3-3-3-3-3-3-3-3-2-2-2-2----------3-3-3-3-3-3-3-3-2-2-2-2-----------------|
B|--------------------------3-3-3-3--------------------------3-3-3-3---------|
G|---------------------------------------------------------------------------|
D|---------------------------------------------------------------------------|
A|---------------------------------------------------------------------------|
E|---------------------------------------------------------------------------|

e|-3-3-3-3-3-3-3-3-2-2-2-2-3-3-3-3-5-5-5-5-3-3-3-3---------------------------|
B|-------------------------------------------------3-3-3-3-5-5-5-5-----------|
G|---------------------------------------------------------------------------|
D|---------------------------------------------------------------------------|
A|---------------------------------------------------------------------------|
E|---------------------------------------------------------------------------|

e|-15-15-15-15-15-15-15-15-14-14-14-14---------------------------------------|
B|-------------------------------------15-15-15-15---------------------------|
G|---------------------------------------------------------------------------|
D|---------------------------------------------------------------------------|
A|---------------------------------------------------------------------------|
E|---------------------------------------------------------------------------|

e|-15-15-15-15-15-15-15-15-14-14-14-14-------------15-15-15-15-14-14-14-14---|
B|-------------------------------------15-15-15-15---------------------------|
G|---------------------------------------------------------------------------|
D|---------------------------------------------------------------------------|
A|---------------------------------------------------------------------------|
E|---------------------------------------------------------------------------|

e|-15-15-15-15--17-17-17-17-15-15-15-15--------------------------------------|
B|--------------------------------------15-15-15-15--------------------------|
G|---------------------------------------------------------------------------|
D|---------------------------------------------------------------------------|
A|---------------------------------------------------------------------------|
E|---------------------------------------------------------------------------|

Verse 5
played same as chorus
    Why'd you kill me?   you had the key       to my heart
e|---------------------------------------------------------------------------|
B|---------------------------------------------------------------------------|
G|---------------------------------------------------------------------------|
D|-5~-4-----5-----------5~------4-5------------5~---4-5----------------------|
A|-7~-7-----7-----------5~------5-5------------3~---3-3----------------------|
E|---------------------------------------------------------------------------|
   don't hurt me
e|---------------------------------------------------------------------------|
B|---------------------------------------------------------------------------|
G|---------------------------------------------------------------------------|
D|-5~---4---5----------------------------------------------------------------|
A|-5~---5---5----------------------------------------------------------------|
E|---------------------------------------------------------------------------|

                        Verse 6
   I can't love you       anymore      you've hurt me
e|---------------------------------------------------------------------------|
B|---------------------------------------------------------------------------|
G|---------------------------------------------------------------------------|
D|-5~-4-----5-----------5~------4-5------------5~---4-5----------------------|
A|-7~-7-----7-----------5~------5-5------------3~---3-3----------------------|
E|---------------------------------------------------------------------------|
                badly
e|---------------------------------------------------------------------------|
B|---------------------------------------------------------------------------|
G|---------------------------------------------------------------------------|
D|------------5~---4---5-----------------------------------------------------|
A|------------5~---5---5-----------------------------------------------------|
E|---------------------------------------------------------------------------|

                                verse 7
  I can't face you        knowing the truth      you've decieved me
e|---------------------------------------------------------------------------|
B|---------------------------------------------------------------------------|
G|---------------------------------------------------------------------------|
D|-5~-4-----5-----------5~------4-5------------5~---4-5----------------------|
A|-7~-7-----7-----------5~------5-5------------3~---3-3----------------------|
E|---------------------------------------------------------------------------|

                            once again
e|---------------------------------------------------------------------------|
B|---------------------------------------------------------------------------|
G|---------------------------------------------------------------------------|
D|-------------------------5~---4---5----------------------------------------|
A|-------------------------5~---5---5----------------------------------------|
E|---------------------------------------------------------------------------|

                        Outro? (palm mute and open the last two notes)
  Why'd you do it?       killed my soul       tore my heart to shreds

e|---------------------------------------------------------------------------|
B|---------------------------------------------------------------------------|
G|---------------------------------------------------------------------------|
D|-5-5-5-5-5-5-5-5-4-4---5-5-5-5-5-5-5-5-4-4---------5-5-5-5-5-5-5-5-4-5-----|
A|-7-7-7-7-7-7-7-7-7-7---5-5-5-5-5-5-5-5-5-5---------3-3-3-3-3-3-3-3-3-3-----|
E|---------------------------------------------------------------------------|

e|---------------------------------------------------------------------------|
B|---------------------------------------------------------------------------|
G|---------------------------------------------------------------------------|
D|-5-5-5-5-5-5-5-5-4-4-------------------------------------------------------|
A|-5-5-5-5-5-5-5-5-5-5-------------------------------------------------------|
E|---------------------------------------------------------------------------|

  Why'd you do it?       left me here to die        alone
e|---------------------------------------------------------------------------|
B|---------------------------------------------------------------------------|
G|---------------------------------------------------------------------------|
D|-5-5-5-5-5-5-5-5-4-4---5-5-5-5-5-5-5-5-4-4---------5-5-5-5-5-5-5-5-4-5-----|
A|-7-7-7-7-7-7-7-7-7-7---5-5-5-5-5-5-5-5-5-5---------3-3-3-3-3-3-3-3-3-3-----|
E|---------------------------------------------------------------------------|

e|---------------------------------------------------------------------------|
B|---------------------------------------------------------------------------|
G|---------------------------------------------------------------------------|
D|-5-5-5-5-5-5-5-5-4-4-------------------------------------------------------|
A|-5-5-5-5-5-5-5-5-5-5-------------------------------------------------------|
E|---------------------------------------------------------------------------|

                        play the chorus again and hold the last note as long as you can